Home » P » Puddle Of Mudd »

Puddle Of Mudd - Psycho Tabs

Artists:  A B C D E F G H I J K L M N O P Q R S T U V W X Y Z # 

Psycho Tabs

(ver. 3) Click to play this song!
Puddle Of Mudd
Puddle of Mudd - Psycho
Tuning: Standard [E A D G B E]


[Intro/Verse] X7

E|-----------------------------------------------|
B|----10---10-----10---11-----6----6------6----8-|
G|----10---10-----10---11-----6----6------6----8-|
D|-----------------------------------------------|
A|-8-----8-----8-----9-----4-----4-----4-----6---|
E|-----------------------------------------------|


[Pre-Chorus]

E|--------------------------------------------|
B|-----3---3---3---5---6---6---6--------------|
G|-----3---3---3---5---6---6---6--------------|
D|--------------------------------13-13-13-13-|
A|---1---1---1---3---4---4---4----13-13-13-13-|
E|--------------------------------11-11-11-11-|


[Chorus] X2

   F        C#         D#    
E|--------------------------|
B|--------------------------|
G|-10-----------------------|
D|-10-X15---11--------13----|
A|-8--------11--X12---13-X2-|
E|----------9---------11----|


[Intro/Verse] X4

[Chorus]


[Chorus 2 - 2nd Half] X3

   F        A#      G#    
E|------------------------|
B|------------------------|
G|-10-------15------13----|
D|-10-X15---15-X8---13-X8-|
A|-8--------13------11----|
E|------------------------|


[Intro/Verse] X2

[Chorus] X4


[Chorus 3 - 2nd Half]

   E    F                                 G#   E  F                                   C#
E|----------------------------------------------------------------------------------------|
B|----------------------------------------------------------------------------------------|
G|-9-9-10-10-10--9-10-10-10--9-10-9-10-9--13---9-9-10-10-10--9-10-10-10--9-10-9-10-9--6---|
D|-9-9-10-10-10--9-10-10-10--9-10-9-10-9--13---9-9-10-10-10--9-10-10-10--9-10-9-10-9--6---|
A|-7-7-8--8--8---7-8--8--8---7-8--7-8--7--11---7-7-8--8--8---7-8--8--8---7-8--7-8--7--4---|
E|----------------------------------------------------------------------------------------|
            
Submit corrections

↑ Back to top | Tablatures and chords for acoustic guitar and electric guitar, ukulele, drums are parodies/interpretations of the original songs. You may use it for private study, scholarship, research or language learning purposes only