Home » P » Propagandhi »

Propagandhi - Nailing Descartes To The Wall Tabs

Artists:  A B C D E F G H I J K L M N O P Q R S T U V W X Y Z # 

Nailing Descartes To The Wall Tabs
Version #1
Propagandhi


Copy URL


. = Palm mute
\ = Slide up
/ = Slide down

Tuning: Standard (E A D G B E)

|                                                          2x|
|--3----3-5-6-6-6-6---------3-3-----6-6-6-6-3-3-----6-6-6-6--|
|--3----3-5-6-6-6-6---------3-3-----6-6-6-6-3-3-----6-6-6-6--|
|--4----4-6-7-7-7-7---------4-4-7-7-8-8-8-8-4-4-7-7-8-8-8-8--|
|--5----5-7-8-8-8-8-7-7-7-7-5-5-8-8-8-8-8-8-5-5-8-8-8-8-8-8--|
|--5----5-7-8-8-8-8-8-8-8-8-5-5-5-5-6-6-6-6-5-5-5-5-6-6-6-6--|
|--3----3-5-6-6-6-6-5-5-5-5-3-3-------------3-3--------------|

              |                                 2x|
|--6--6-6--6--|--6-6-6-6---------3-3-3-3-6-6-6-6--|--6-6-6-6---------3----1--|
|--6--6-6--6--|--6-6-6-6---------3-3-3-3-6-6-6-6--|--6-6-6-6---------3----1--|
|--8--8-8--8--|--7-7-7-7---------4-4-4-4-8-8-8-8--|--7-7-7-7---------4----2--|
|--8--8-8--8--|--8-8-8-8-7-7-7-7-5-5-5-5-8-8-8-8--|--8-8-8-8-7-7-7-7-5----3--|
|--6--6-6--6--|--8-8-8-8-8-8-8-8-5-5-5-5----------|--8-8-8-8-8-8-8-8-5----3--|
|-------------|--6-6-6-6-5-5-5-5-3-3-3-3----------|--6-6-6-6-5-5-5-5-3----1--|
      . .

|                              3x|
|--6-6-6-6-1-1-1-1-1-3-3-3-3-----|--6-6-6-6\8--8-/--|--3/--|
|--6-6-6-6-1-1-1-1-1-3-3-3-3-----|--6-6-6-6\8--8-/--|--3/--|
|--8-8-8-8-2-2-2-2-2-0-0-0-0-7-7-|--8-8-8-8\10-10/--|--4/--|
|--8-8-8-8-3-3-3-3-3-0-0-0-0-8-8-|--8-8-8-8\10-10/--|--5/--|
|--6-6-6-6-3-3-3-3-3-2-2-2-2-5-5-|--6-6-6-6\8--8-/--|--5/--|
|----------1-1-1-1-1-3-3-3-3-----|------------------|--3/--|
             . . . .
            
Submit corrections

↑ Back to top | Tablatures and chords for acoustic guitar and electric guitar, ukulele, drums are parodies/interpretations of the original songs. You may use it for private study, scholarship, research or language learning purposes only