» » »

Promise Ring - Everywhere In Denver Tabs

Artists:  A B C D E F G H I J K L M N O P Q R S T U V W X Y Z # 

Everywhere In Denver Tabs

(ver. 2) Click to play this song!
Promise Ring
 Rating:
4/5 (4 votes)

 Everywhere In Denver lessons Tabs too difficult? Try these video lessons and learn fast
 
                
Parts are based from the CBGB's show DVD (with Texas is the Reason)

The cd version has some sort of organ/keyboard in the background.

Tuning jason (low to high)= E G C G C E
Tuning davey (low to high)= E A D G B E

#intro#
jason
-|---------------------------------------------------|
-|---------------------------------------------------|
-|---------------------------------------------------|
-|-7-7--7-7-7-7--7-7-7--7-7-7--7-7--7-7-7-7----------|
-|--x-x--x-x-x-x---x-x-x--x-x-x---x-x--x-x-x-x-------|
-|-8-8--8-8-8-8--8-8-8--8-8-8--8-8--8-8-8-8----------|


#main part#
jason
-|--------------------------------------------------------------------------------|
-|--------------------------------------------------------------------------------|
-|--------------------------------------------------------------------------------|
-|-7-7--7-7-7-7--7-7-7--7-7-7--7-7--7-7-7-7--7-7-7-7-7--7-7-7-7-7-7---------------|
-|--x-x--x-x-x-x---x-x-x--x-x-x---x-x--x-x-x-x---9-9-9-9-9--0-0-0-0-0-0-----------|
-|-8-8--8-8-8-8--8-8-8--8-8-8--8-8--8-8-8-8---------------------------------------|

davey
-|---------------------------------------------------------------------------------------|
-|---------------------------------------------------------------------------------------|
-|---------------------------------------------------------------------------------------|
-|-1010-10101010-101010-101010-1010-10101010-1010101010-101010101010---------------------|
-|-1010-10101010-101010-101010-1010-10101010-7-7-7-7-7----7--7-7--7-7--7-----------------|
-|--8-8---8-8-8--8---8-8-8---8-8-8----8-8---8-8-8-8----------------------7--7-7--7-7--7--|


#solo davey# "Put out the lights..."
-|---------------------------------|-----------------------------|--|
-|---------------------------------|--------------------------------|
-|-------------------12-12--10-9--|---------------------------------|
-|-1010101010--12-12--10-9--|--101010101010101010-------------------|
-|-1010101010-------------------|--101010101010101010---------------|
-|-8-8-8-8-8-----------------------|--8--8-8-8--8-8--8-8--8---------|

(the other guitar plays the #main part# during the solos)

#solo jason#______________repeat|1st end____ |2nd end
-|----------------------------------------|---------------|-----------------------|
-|----------------------------------------|---------------|-----------------------|
-|-12-12-12-12-10-10-10-9-9-9---|-7-7-7-9-9-7-|-7-7-7-9-9-------------------------|
-|-0--0---0--0----0--0--0---0-0-0----|-0-0-0-0-0-0-|-0-0-0-0-0-11-11--------------|
-|-0--0---0--0----0--0--0---0-0-0----|-0-0-0-0-0-0-|-0-0-0-0-0-0---0--------------|
-|-----------------------------------------|----------------|---------------------|
(he plays the open strings on the DVD, not on the cd-version)

end playing the #main part# once.
(and don't forget to yell 'yeah!')
            
Submit corrections


        Everywhere In Denver lessons Hard to play? Try these video lessons and learn fast Everywhere In Denver lessons
        
↑ Back to top | Tablatures and chords for acoustic guitar and electric guitar, ukulele, drums are parodies/interpretations of the original songs. You may use it for private study, scholarship, research or language learning purposes only