» » »

Project 86 - Solace Bass

Artists:  A B C D E F G H I J K L M N O P Q R S T U V W X Y Z # 

Solace Bass

(ver. 3) Click to play this song!
Project 86
 Rating:
4/5 (4 votes)


 Solace lessons Tabs too difficult? Try these video lessons and learn fast
 
                			     Solace - Project 86

Okay, I thought I'd go ahead and put this in Drop D, seen as it's what Project 86 play in. 


Tuning: Drop D, D A D G

Slide - /
Let Ring - ~

Intro (0.04) 
G|---8~---9~---6~-|--11---1211-----|
D|-6----6----6----|----------------| x2
A|----------------|9----9----------|
D|----------------|----------------|

Verse (0.23) 'We have waited for so long'
G|--8-8986-8--------8--8986-89-----4-|
D|-6-6----6-6-898--6-6-----6--6-464--| x4
A|-----------------------------------|
D|-----------------------------------|

G|----------------|
D|6(x24)----------|
A|----------------|
D|----------------|

Chorus (1.10) 'Lets go back in time, you and I'
G|----------------|----------------|
D|----------------|-------4--------| x4
A|---6---7---6----|-----4----------|
D|-6---6---6---6--|-2-4------------|

G|----------------|
D|----------------|
A|----------------|
D|4~--------------|

Verse (1.38) x 4
Then
G|----------------|
D|6(x24)----------|
A|----------------|
D|----------------|

Chorus (2.25) 'So forever now we'll find our peace inside this'
G|----------------|----------------|
D|----------------|-------4--------| x4
A|---6---7---6----|-----4----------|
D|-6---6---6---6--|-2-4------------|

'Nothing, nothing, nothing but the words of the meaningless'
G|----------------|
D|----------------|
A|----------------|
D|-6-6-6-6~-------|

Instrumental Bit (2.54)
Rest while guitar plays riff 8x
Then (3.13)
G|---8--98--4-----|
D|-6--6---98------| x16
A|----------------|
D|----------------|

(3.50) 'Over, over, over, out!'
G|----------------|----------------|
D|66-666-666-666-6|----------------| x2
A|----------------|77-777-777-777-7|
D|----------------|----------------|

G|----------------|
D|66--------------|
A|----------------|
D|----------------|

Chorus (4.11) 'Now I mean to thank you once again with this'
G|----------------|----------------|
D|----------------|-------4--------| x4
A|---6---7---6----|-----4----------|
D|-6---6---6---6--|-2-4------------|

'On this very day and on this very hill'
G|----------------|
D|----------------| x4
A|---6667776664444|
D|666-------------|

and Out (4.49) 'and you're over, over, over, out!'

G|----------------|----------------|
D|----------------|----------------|
A|----------------|----------------|
D|-66-666-666-666-|-666-666-666----|
            
Submit corrections



        Solace lessons Hard to play? Try these video lessons and learn fast Solace lessons
        
↑ Back to top | Tablatures and chords for acoustic guitar and electric guitar, ukulele, drums are parodies/interpretations of the original songs. You may use it for private study, scholarship, research or language learning purposes only