» » »

Prince Royce - Culpa Al Corazon Tabs

Artists:  A B C D E F G H I J K L M N O P Q R S T U V W X Y Z # 

Culpa Al Corazon Tabs

(ver. 1) Click to play this song!
Prince Royce
 Rating:
4.3/5 (6 votes)

 Culpa Al Corazon  lessons Tabs too difficult? Try these video lessons and learn fast
 
                [Intro] 

Chords as followed: C  Am  F  G  

(Repeats once more. Feel free to use barre chords)

e|-0--0--1--3--------------------------------------------------------------------|
B|-1--1--1--3--------------------------------------------------------------------|
G|-0--2--2--4--------------------------------------------------------------------|
D|-2--2--3--5--------------------------------------------------------------------|
A|-3--0--3--5--------------------------------------------------------------------|
E|-------1--3--------------------------------------------------------------------|


[Verse]

e|-----------------------------------------------------------------------------------------|
B|----5-----5----------5-----5----------6-----6-----------3-3h5p3--------------------------|
G|--5-----5-----5----5-----5-----5----5-----5-----5-----4---------5-5p4--------------------|
D|5-----5-----5----7-----7-----7----7-----7-----7-----5------------------------------------|
A|-----------------------------------------------------------------------------------------|
E|-----------------------------------------------------------------------------------------|

e|--------------------------------------------------7/8/7---3-5-------------------------------|
B|----5-----5---------5-----5---------6-----6-------8/10/8--3-5-----5-----6-5-----------------|
G|--5-----5-----5---5-----5-----5---5-----5-----5-----------------5-----5-----7-5-------------|
D|5-----5-----5---7-----7-----7---7-----7-----7-----------------5-----5-----------7-----------|
A|--------------------------------------------------------------------------------------------|
E|--------------------------------------------------------------------------------------------|

e|-------------------------------------------------------------------------------5--3/5b/3------------|
B|----5-----5---------6-----6----------8-8/10b-10p8------5-----5---------5-----5-6--3/5b/3------------|
G|--5-----5-----5---5-----5-----5----7-----------------5-----5-----5---5-----5---5--------------------|
D|7-----7-----7---7-----7-----7----9-----------------5-----5-----5---7-----7-----7--------------------|
A|----------------------------------------------------------------------------------------------------|
E|----------------------------------------------------------------------------------------------------|


[Chorus 1]

e|-------------------------------------------------------------------------------------------7h8-----|
B|--5-------5----5-----6----6----------8-6-5/3-----5-------5----5------6----5-----8-8/10/8-8-----8---|
G|-5-5----5--5-------5--5------5/7-7-7-----------5--5----5--5--------5--5-------7--------------------|
D|5-----7------7---7------7--------------------5-------7------7----7------7---9----------------------|
A|---------------------------------------------------------------------------------------------------|
E|---------------------------------------------------------------------------------------------------|

Side guitar lick in the chorus

e|---12--------10----10--------------------------------------------------------------|
B|13----13--12----12-----------------------------------------------------------------|
G|-----------------------------------------------------------------------------------|
D|-----------------------------------------------------------------------------------|
A|-----------------------------------------------------------------------------------|
E|-----------------------------------------------------------------------------------|


[Solo 1 before Verse 2]

e|----------------------------------------------------------15--------------------15-----------------------|
B|----3-3h5------------------------6-5h6p5---------13-13/15----13--------12-13/15----13--------------------|
G|--5--------3/5----5h7-7/9-5----5--------------12----------------14--12----------------14-----------------|
D|5---------------7------------7------------7~-------------------------------------------------------------|
A|---------------------------------------------------------------------------------------------------------|
E|---------------------------------------------------------------------------------------------------------|

e|------12h13--12h13p12-------------------------------------------------------------------|
B|---13------------------13/15------------------------------------------------------------|
G|14----------------------------12h14p12--------------------------------------------------|
D|---------------------------------------12h14p12-----------------------------------------|
A|----------------------------------------------------------------------------------------|
E|----------------------------------------------------------------------------------------|


[Verse 2]

e|---------------------------------------------------------------------------------------------|
B|----5-----5----------5-----5h8p5--6------6-----6----------8--5-6-5---5-----------------------|
G|--5-----5-----5----5-----5-------------5-----5-----5----7----------7---7-5-------------------|
D|5-----5-----5----7-----7-------------7-----7-----7----9--------------------------------------|
A|---------------------------------------------------------------------------------------------|
E|---------------------------------------------------------------------------------------------|

e|---------------------------------------------------------7/8--7-3/5--------------------------|
B|----5-----5----------5-----5----------6-----6-----6------8/10-8-3/5--------------------------|
G|--5-----5-----5----5-----5-----5----5-----5-----5-----5--------------------------------------|
D|5-----5-----5----7-----7-----7----7-----7-----7-----7----------------------------------------|
A|---------------------------------------------------------------------------------------------|
E|---------------------------------------------------------------------------------------------|

e|---------------------------------------------------------------------------|
B|----5-----5h6p5-----------5-----5----------6-----6----------8-8--8/10b-----|
G|--5-----5--------7-5----5-----5-----5----5-----5-----5----7----------------|
D|5-----5---------------7-----7-----7----7-----7-----7----9------------------|
A|---------------------------------------------------------------------------|
E|---------------------------------------------------------------------------|

e|---------------------------------------------------------------------------|
B|----5-----5----------5-----5----------6-6-6-6-8-10-8~----------------------|
G|--5-----5-----5----5-----5-----5----5--------------------------------------|
D|5-----5-----5----7-----7-----7----7----------------------------------------|
A|---------------------------------------------------------------------------|
E|---------------------------------------------------------------------------|


[Chorus 2]

e|-------------------------------------------------------------------------------------|
B|---8-------------5----5------6----6------8----8---8---8--10p8~-----------------------|
G|-----9---------5--5--------5--5--------7----7---7---7--------------------------------|
D|10-----10-9--7------7----7------7----9-----------------------------------------------|
A|-------------------------------------------------------------------------------------|
E|-------------------------------------------------------------------------------------|

e|---------------------------------------------------------------------------|
B|---8------------5---5-6-5---5----------6-----6----------8---8/21-21--------|
G|-----9--------5--5--------7---7-5----5-----5-----5----7---7----------------|
D|10-----10-9-7----------------------7-----7-----7----9----------------------|
A|---------------------------------------------------------------------------|
E|---------------------------------------------------------------------------|


[Solo 2]

  |----REPEATS 3X----|                 |----REAPEATS 3X----|
e|-------------------------------------------------------------------------------|
B|-------------------------------------------------------------------------------|
G|9-9-----5-5--7-5-------------------8--------------------------------------8----|
D|----7-7--------------9-9-----5-5-7----9-9-----5-5-7-5------9-9------5-5-7------|
A|-------------------------7-7--------------7-7-------------------7-7------------|
E|-------------------------------------------------------------------------------|

e|----------8-10-12-8p10-8p10-------------------------------------------------------------|
B|10~-10-10--------------------8h10p8-----------------------------------------------------|
G|-------------------------------------7h9p7----------------------------------------------|
D|--------------------------------------------5h7p5~--------------------------------------|
A|----------------------------------------------------------------------------------------|
E|----------------------------------------------------------------------------------------|


(Side guitar licks)

Lick 1
e|---10----10----10-10p12--10-10---------------------------------------------|
B|13----13----13------------------13-----------------------------------------|
G|---------------------------------------------------------------------------|
D|---------------------------------------------------------------------------|
A|---------------------------------------------------------------------------|
E|---------------------------------------------------------------------------|

Lick 2
e|---------------------------------------------------------------------------|
B|10h12p10--8-8p10-----------------------------------------------------------|
G|---------------------------------------------------------------------------|
D|---------------------------------------------------------------------------|
A|---------------------------------------------------------------------------|
E|---------------------------------------------------------------------------|

Lick 3                         Lick 4                   Lick 5
e|-----------------------------------------------------10p12---5/6--8-8--------10-10-------|
B|13----------------------------8-8---8-10p8-------------------5/6--------6p8--------------|
G|---12----12-----------------7-----7---------7--------------------------------------------|
D|------14------------------9-------------------9------------------------------------------|
A|-----------------------------------------------------------------------------------------|
E|-----------------------------------------------------------------------------------------|            
Submit corrections


        Culpa Al Corazon  lessons Hard to play? Try these video lessons and learn fast Culpa Al Corazon  lessons
        
↑ Back to top | Tablatures and chords for acoustic guitar and electric guitar, ukulele, drums are parodies/interpretations of the original songs. You may use it for private study, scholarship, research or language learning purposes only