» » »

Primus - Eleven Bass

Artists:  A B C D E F G H I J K L M N O P Q R S T U V W X Y Z # 

Eleven Bass

(ver. 1) Click to play this song!
Primus
 Rating:
4/5 (9 votes)
                
ELEVEN (Bassline)
As recorded by Primus
(From the 1991 Album SAILING THE SEAS OF CHEESE)

	

Words by Les Claypool Music by Les Claypool, Larry LaLonde and Tim Alexander

Gtr I (E A D G) - 'Untitled'

 Intro             Intro
  Q.=84
 11/8
  Gtr I
  Wx4               H.      +Q.   +Q     H.      +Q.   +Q
|---------------||---------------------|--------------------|
|---------------||o--------------------|--------------------|
|---------------||o--------------------|--------------------|
|---------------||--2-------(2)---(2)--|-3-------(3)---(3)--|


                       1.
  H.      +Q.   +Q     H.      +Q.   +Q
|--------------------|----------------------|
|--------------------|----------------------|
|--------------------|----------------------|
|-2-------(2)---(2)--|-0-------(0)---(0)----|


                         2.
                                    \3.5
  E E E Q.   Q.   Q      Q.   +Q   +E    +Q.   +Q
|---------------------||----------------------------|
|--------------------o||----------------------------|
|--------------------o||----------------------------|
|-0-------------------||-0----(0)--(0)---(0)---(0)--|


  E E E Q.   Q.   Q    H.      Q.   E E
|--------------------|------------------||
|--------------------|------------------||
|--------------------|------------------||
|-0------------------|--------------3-2-||


    E E E E E E E E E E E   E E E E E E E E E E E  3x
||----5-7---5-4---5-7-----|---5-7---5-4---5-7------||
||o---5-7---5-4---5-7-----|---5-7---5-4---5-7-----o||
||o-----------------------|-----------------------o||
||--0-----0-----0-----3-2-|-0-----0-----0-----3-2--||


 Verse
  E E E E E E E E E E E   E E E E E E E E E E E
|---5-7---5-4---5-7-----|---5-7---5-4---5-7-----|
|---5-7---5-4---5-7-----|---5-7---5-4---5-7-----|
|-----------------------|-----------------------|
|-0-----0-----0-----3-2-|-0-----0-----0-----3-2-|


    E E E E E E E E E E E   E E E E E E E E E E E  3x
||----5-7---5-4---5-7-----|---5-7---5-4---5-7------||
||o---5-7---5-4---5-7-----|---5-7---5-4---5-7-----o||
||o-----------------------|-----------------------o||
||--0-----0-----0-----3-2-|-0-----0-----0-----3-2--||


    E E E E E E E E E E E   E E E E E E E E E E E  4x
||----5-7---5-4---5-7-----|---5-7---5-4---5-7------||
||o---5-7---5-4---5-7-----|---5-7---5-4---5-7-----o||
||o-----------------------|-----------------------o||
||--0-----0-----0-----3-2-|-0-----0-----0-----3-2--||


 Chorus
 9/8               11/8
  H.      +Q   E    E E E E E E E E E E E   E E E E E E E E E E E
|-----------------|---5-7---5-4---5-7-----|---5-7---5-4---5-7------|
|-----------------|---5-7---5-4---5-7-----|---5-7---5-4---5-7------|
|-3-------(3)--3/-|-----------------------|------------------------|
|-----------------|-0-----0-----0-----3-2-|-0-----0-----0-----3-2--|


 12/8                       11/8
  H.      +Q.   +E  E  E     E E E E E E E E E E E   E E E E E E E E E E E
|------------------------||----5-7---5-4---5-7-----|---5-7---5-4---5-7------||
|------------------------||o---5-7---5-4---5-7-----|---5-7---5-4---5-7-----o||
|-3-------(3)---(3)-3/---||o-----------------------|-----------------------o||
|----------------------0-||--0-----0-----0-----3-2-|-0-----0-----0-----3-2--||


   Guitar Solo
    E E E E E E E E E E E   E E E E E E E E E E E  4x
||----5-7---5-4---5-7-----|---5-7---5-4---5-7------||
||o---5-7---5-4---5-7-----|---5-7---5-4---5-7-----o||
||o-----------------------|-----------------------o||
||--0-----0-----0-----3-2-|-0-----0-----0-----3-2--||


   Verse
    E E E E E E E E E E E   E E E E E E E E E E E
||----5-7---5-4---5-7-----|---5-7---5-4---5-7------||
||o---5-7---5-4---5-7-----|---5-7---5-4---5-7-----o||
||o-----------------------|-----------------------o||
||--0-----0-----0-----3-2-|-0-----0-----0-----3-2--||


    E E E E E E E E E E E   E E E E E E E E E E E  8x
||----5-7---5-4---5-7-----|---5-7---5-4---5-7------||
||o---5-7---5-4---5-7-----|---5-7---5-4---5-7-----o||
||o-----------------------|-----------------------o||
||--0-----0-----0-----3-2-|-0-----0-----0-----3-2--||


 Chorus
 9/8               11/8
  H.      +Q   E    E E E E E E E E E E E   E E E E E E E E E E E
|-----------------|---5-7---5-4---5-7-----|---5-7---5-4---5-7------|
|-----------------|---5-7---5-4---5-7-----|---5-7---5-4---5-7------|
|-3-------(3)--3/-|-----------------------|------------------------|
|-----------------|-0-----0-----0-----3-2-|-0-----0-----0-----3-2--|


 12/8                       11/8
  H.      +Q.   +E  E  E     E E E E E E E E E E E   E E E E E E E E E E E
|------------------------||----5-7---5-4---5-7-----|---5-7---5-4---5-7------||
|------------------------||o---5-7---5-4---5-7-----|---5-7---5-4---5-7-----o||
|-3-------(3)---(3)-3/---||o-----------------------|-----------------------o||
|----------------------0-||--0-----0-----0-----3-2-|-0-----0-----0-----3-2--||


 Outro
  E E E E E E E E E E E   E E E E E E E E E E E
|---5-7---5-4---5-7-----|---5-7---5-4---5-7-----|
|---5-7---5-4---5-7-----|---5-7---5-4---5-7-----|
|-----------------------|-----------------------|
|-0-----0-----0-----3-2-|-0-----0-----0-----3-2-|


  E E E E E E E E E E E   E E E Q.   Q.   Q
|---5-7---5-4---5-7-----|--------------------*|
|---5-7---5-4---5-7-----|--------------------*|
|-----------------------|--------------------*|
|-0-----0-----0-----3-2-|-0------------------*|



Duration Legend
---------------
W - whole; H - half; Q - quarter; E - 8th; S - 16th; T - 32nd; X - 64th; a - acciaccatura
+ - note tied to previous; . - note dotted; .. - note double dotted
Uncapitalized letters represent notes that are staccato (1/2 duration)
Irregular groupings are notated above the duration line
Duration letters will always appear directly above the note/fret number it represents the
duration for.  Duration letters with no fret number below them represent rests.  Multi-
bar rests are notated in the form Wxn, where n is the number of bars to rest for.  Low
melody durations appear below the staff

Tablature Legend
----------------
 h   - hammer-on
 p   - pull-off
 b   - bend
 pb  - pre-bend
 r   - bend release (if no number after the r, then release immediately)
 /\  - slide into or out of (from/to "nowhere")
 s   - legato slide
 S   - shift slide
 - natural harmonic
[n]  - artificial harmonic
n(n) - tapped harmonic
 ~   - vibrato
 tr  - trill
 T   - tap
 TP  - trem. picking
 PM  - palm muting
\n/  - tremolo bar dip; n = amount to dip
 \n  - tremolo bar down
 n/  - tremolo bar up
/n\  - tremolo bar inverted dip
 =   - hold bend; also acts as connecting device for hammers/pulls
 <> - volume swell (louder/softer)
 x   - on rhythm slash represents muted slash
 o   - on rhythm slash represents single note slash

Misc Legend
-----------
 |  - bar
||  - double bar
||o - repeat start
o|| - repeat end
*|  - double bar (ending)
 :  - bar (freetime)
 $  - Segno
 &  - Coda
Tempo markers -  = BPM(8/16=s8/s16), where s8 = swing 8ths, s16 = swing 16ths
            
Submit corrections

↑ Back to top | Tablatures and chords for acoustic guitar and electric guitar, ukulele, drums are parodies/interpretations of the original songs. You may use it for private study, scholarship, research or language learning purposes only