» » »

Primus - Anti Pop Tabs

Artists:  A B C D E F G H I J K L M N O P Q R S T U V W X Y Z # 

Anti Pop Tabs

(ver. 1) Click to play this song!
Primus
 Rating:
4/5 (4 votes)
                This is my second tab and the other Antipop that has already been tabbed is abit naff in some places. (no offence...i didnt no how to do the pre-chorus before i saw that tab). But now i am going to tab how i think it is.

Intro part one:
e---------------------------------------
b---------------------------------------
g-------------------------------5-------
d---7-4----------------7-4------5-------
a---7-4----------------7-4------3-------
e---5-2----------------5-2--------------

         Repeat intro 3 times

Intro part 2:
e----------------------------------------------------------------------
b----------------------------------------------------------------------
g---------------------------------------------------------5------------
d----2-4-----2-4-----2-4-----2-4-----2-4------2-4-------2-5------------
a----2-4-----2-4-----2-4-----2-4-----2-4------2-4-------2-3-let ring---
e----0-2-----0-2-----0-2-----0-2-----0-2------0-2-------0--------------
    
All this is palm muted excpet for the final chord then you repeat the riff once more.

Intro part 3:
e----------------------------
b----------------------------
g----------------------------
d-4-4----4-4----4-4----------
a-4-4----4-4----4-4----------
e-2-2----2-2----2-2----------

Intro part 4:
e-------------------------------------------------
b-------------------------------------------------
g-------------------------------------------------
d---4-----7----------7-8---7-8-7-7/4----10-11-10--
a-------------------------------------------------
e-------------------------------------------------

e-------------------------------------------------
b-------------------------------------------------
g-------------------------------------------------
d---4-----7----------7-8--7-8-7-7/4-----2---------
a-------------------------------------------------
e-------------------------------------------------


          Guitar does nothing in verse 1

Pre-Chorus: (taken from other antipop tab and modified slighty i think)
e----------------------------------------
b----------------------------------------
g----------------------------------------
d---7-------7-------7-------7-------7----
a-----9---9---9---9---9---9---9---9---9--
e-------7-------7-------7-------7-------7

e----------------------------------------
b----------------------------------------
g----------------------------------------
d---9-------9-------9-------9-------9----
a----11--11--11--11--11--11--11--11--11--
e------9-------9-------9-------9--------9


Chorus:
e----------------------------------------
b----------------------------------------
g----------------------------------------
d---4-----7-6-7------4---7----7-8-7-8----
a----------------------------------------
e----------------------------------------

Pre-verse:
e----------------------------------------
b----------------------------------------
g----------------------------------------
d---4-----7-6-7------4---7----7-8-7-8----
a----------------------------------------
e----------------------------------------


       Guitar Does nothing in verse 2

Pre-Chorus:(taken from other antipop tab)
e----------------------------------------
b----------------------------------------
g----------------------------------------
d---7-------7-------7-------7-------7----
a-----9---9---9---9---9---9---9---9---9--
e-------7-------7-------7-------7-------7

e----------------------------------------
b----------------------------------------
g----------------------------------------
d---9-------9-------9-------9-------9----
a----11--11--11--11--11--11--11--11--11--
e------9-------9-------9-------9--------9

Chorus;
e----------------------------------------
b----------------------------------------
g----------------------------------------
d---4-----7-6-7------4---7----7-8-7-8----
a----------------------------------------
e----------------------------------------

          Repeat 3 more times

Solo type thing: tap = t
e-------------------------------------------------------------------
b-------------------------------------------------------------------
g-------------------------------------------------------------------
d---4t0-4t0-4t0-4t0-4t0-4t0-4t0-4t0-3to-3to-3to-3to-2t0-2t0-2t0-2t0-
a-------------------------------------------------------------------
e-------------------------------------------------------------------

       Repeat twice more but 3rd and 2nd frets are 7th and 9th

Then:
e----------------------
b----------------------
g----3b1/2----2b1/2----
d----------------------
a----------------------
e----------------------

Interlude:
e---------------------------------------17----------
b---------------------------------------------------
g-------------------------------5-------------------
d---7-4----------------7-4------5---------------7-4-
a---7-4----------------7-4------3---------------7-4-
e---5-2----------------5-2----------------------5-2-

Guitar then makes crazy noises (fun to improvise here)

Verse 3:
e-----------------------------------------------------------------------------
b-----------------------------------------------------------------------------
g-----------------------------------------------------------------------------
d-----------------------------------------------------------------------------
a-----------------------------------------------------------------------------
e--------0-2--------0-2--------0-2--------0-2--------0-2--------0-2--------0-2

Pre Chorus:
e------------------------------------------------
b------6--4--6--7--6--4--6--2--8--7--8--9--8-7--8
g------------------------------------------------
d------------------------------------------------
a------------------------------------------------
e------------------------------------------------

Chorus:
e----------------------------------------
b----------------------------------------
g----------------------------------------
d---4-----7-6-7------4---7----7-8-7-8----
a----------------------------------------
e----------------------------------------

          Repeat 7 more times

Outro:
e----------------------------------------
b----------------------------------------
g----------------------------------------
d---4-----7-6-7------4---7----7-8-7-8----
a----------------------------------------
e----------------------------------------
  
            Repeat twice more

Then:
e------------------------------
b------------------------------
g------------------------------
d---7-5------------------------
a---7-5------------------------
e---5-2------------------------
            
Submit corrections

↑ Back to top | Tablatures and chords for acoustic guitar and electric guitar, ukulele, drums are parodies/interpretations of the original songs. You may use it for private study, scholarship, research or language learning purposes only