Home » P » Prime Circle »

Prime Circle - More Or Less Tabs

Artists:  A B C D E F G H I J K L M N O P Q R S T U V W X Y Z # 

More Or Less Tabs

(ver. 1) Click to play this song!
Prime Circle
[Intro]
e|---------------------------------------------------------------------------|
B|-----------------------------------------------------------------5---------|
G|-----------------------------------------------------------------0---------|
D|---------------------------------------------------------------------------|
A|---------------------------------------------------------------------------|
E|---------------------------------------------------------------------------|

[Verse 1]
e|---------------------------------------------------------------------------|
B|--8-------8-------8-------8---------7-------7-------7-------7--------------|
G|-------9-------9-------9-------9---------7-------7-------7-------7---------|
D|---------------------------------------------------------------------------|
A|--7--7----7--7----7--7----7--7------5--5----5--5----5--5----5--5-----------|
E|---------------------------------------------------------------------------|

e|---------------------------------------------------------------------------|
B|--3-------3-------3-------3---------5-------5-------5--------5-------------|
G|-------4-------4-------4-------4---------5-------5-------5-----------------|
D|---------------------------------------------------------------------------|
A|--2--2----2--2----2--2----2--2------3--3----3--3----3--3-----3----3/-------|
E|---------------------------------------------------------------------------|


e|---------------------------------------------------------------------------|
B|--8-------8-------8-------8--10-----7-------7-------7-------7--------------|
G|-------9-------9-------9-----------------7-------7-------7-------7---------|
D|---------------------------------------------------------------------------|
A|--7--7----7--7----7--7----7--7------5--5----5--5----5--5----5--5-----------|
E|---------------------------------------------------------------------------|

e|---------------------------------------------------------------------------|
B|--3-------3-------3-------3---------5-------5-------5--------5-------------|
G|-------4-------4-------4-------4---------5-------5-------5-----------------|
D|---------------------------------------------------------------------------|
A|--2--2----2--2----2--2----2--2------3--3----3--3----3--3-----3-------------|
E|---------------------------------------------------------------------------|

[Chorus 1]
e|----------------------------------|
B|--8-8--12-12--7-----3-3--7-7--5---|
G|--9-9--12-12--7-----4-4--7-7--5---| x2
D|----------------------------------|
A|--7-7--10-10--5-----2-2--5-5--3---|
E|----------------------------------|

[Verse 2]
e|---------------------------------------------------------------------------|
B|--8-------8-------8-------8---------7-------7-------7-------7--------------|
G|-------9-------9-------9-------9---------7-------7-------7-------7---------|
D|---------------------------------------------------------------------------|
A|--7--7----7--7----7--7----7--7------5--5----5--5----5--5----5--5-----------|
E|---------------------------------------------------------------------------|

e|---------------------------------------------------------------------------|
B|--3-------3-------3-------3---------5-------5-------5--------5/------------|
G|-------4-------4-------4-------4---------5-------5-------5-----------------|
D|---------------------------------------------------------------------------|
A|--2--2----2--2----2--2----2--2------3--3----3--3----3--3-----3/------------|
E|---------------------------------------------------------------------------|

e|---------------------------------------------------------------------------|
B|--8-------8-------8-------8---------7-------7-------7-------7--------------|
G|-------9-------9-------9-------9---------7-------7-------7-------7---------|
D|---------------------------------------------------------------------------|
A|--7--7----7--7----7--7----7--7------5--5----5--5----5--5----5--5-----------|
E|---------------------------------------------------------------------------|

e|---------------------------------------------------------------------------|
B|--3-------3-------3-------3---------5-------5-------5--------5-------------|
G|-------4-------4-------4-------4---------5-------5-------5-----------------|
D|---------------------------------------------------------------------------|
A|--2--2----2--2----2--2----2--2------3--3----3--3----3--3-----3-------------|
E|---------------------------------------------------------------------------|

[Chorus 2]
e|----------------------------------|
B|--8-8--12-12--7-----3-3--7-7--5---|
G|--9-9--12-12--7-----4-4--7-7--5---| x2
D|----------------------------------|
A|--7-7--10-10--5-----2-2--5-5--3---|
E|----------------------------------|

[Break]
e|--0---0----0----|
B|--1---3----1----|
G|--2---4----0----| x2
D|--2---4----2----|
A|--0---2----3----|
E|----------------|

[Chorus] (play once after break)
e|---------------------------|
B|--8--12---7----3--7---5----|
G|--9--12---7----4--7---5----|
D|---------------------------|
A|--7--10---5----2--5---3----|
E|---------------------------|

[Chorus 3]
e|----------------------------------|
B|--8-8--12-12--7-----3-3--7-7--5---|
G|--9-9--12-12--7-----4-4--7-7--5---| x4
D|----------------------------------|
A|--7-7--10-10--5-----2-2--5-5--3---|
E|----------------------------------|

[Outro]
e|--------------------------------------------------------------------------|
B|--8-------8-------8-------8----------8-------8-------8-------8---------8--|
G|-------9-------9-------9-------9----------9-------9-------9-------9-------|
D|--------------------------------------------------------------------------|
A|--7--7----7--7----7--7----7--7-------7--7----7--7----7--7----7--7------7--|
E|--------------------------------------------------------------------------|
            
Submit corrections

↑ Back to top | Tablatures and chords for acoustic guitar and electric guitar, ukulele, drums are parodies/interpretations of the original songs. You may use it for private study, scholarship, research or language learning purposes only