Home » P » Primal Scream »

Primal Scream - Country Girl Tabs

Artists:  A B C D E F G H I J K L M N O P Q R S T U V W X Y Z # 

Country Girl Tabs

(ver. 1) Click to play this song!
Primal Scream
hello this is my first tab an im only 14 so be nice
intro
e---------------------------------------------------------|
b---------------------------------------------------------|
g---10-10-10-10-------10-10-10-10--------10-10-10-10------|
d---10-10-10--8-------10-10-10--8--------10-10-10--8------|
a---------------------------------------------------------|
e---------------------------------------------------------|


verse
e---------------------------------------------------------|
b---------------------------------------------------------|
g---10-10-10-10-------10-10-10-10--------10-10-10-10------|
d---10-10-10--8-------10-10-10-10--------10-10-10--8------|
a---------------------------------------------------------|
e---------------------------------------------------------|
play that a few times then play


e---------------------------------------------------------|
b---------------------------------------------------------|
g---------------------------------------------------------|
d---8-8-8-8-8-8-8-8-8-8-8-8-8-8-8-8-8-8-8-8-8-8-8-8-8-8-8-|
a---8-8-8-8-8-8-8-8-8-8-8-8-8-8-8-8-8-8-8-8-8-8-8-8-8-8-8-|
e---------------------------------------------------------|
then the first bit again
then

e----------------------------------------------------------|
b----------------------------------------------------------|
g----------------------------------------------------------|
d---10-10-10-10-10-10-10-8-8-8-8-8-8-8-8-8-8-8-8-8-8-8-8-8-|
a---10-10-10-10-10-10-10-8-8-8-8-8-8-8-8-8-8-8-8-8-8-8-8-8-|
e----------------------------------------------------------|
go through that a few times


chorus
       f           Bb         f           c
e---------------------------------------------------------|
b---10-----------------------10---------------------------|
g---10------------7----------10-----------9---------------|
d---10------------8----------10----------10---------------|
a----8------------8-----------8----------10---------------|
e-----------------6-----------------------8---------------|


the bridge is Bb f Bb f Bb f c

then i play the solo like this
e-----------------------------------------------------------------|
b------------------------------------10-10-10-10--10-10-10-10--10-|
g---10-10-10-10----10-10-10-10-12-10------------------------------|   x2
d-----------------------------------------------------------------|
a-----------------------------------------------------------------|
e-----------------------------------------------------------------|

e----------------------------------------------------------------------|
b----------------------------------------------------------------------|
g-------------------------------9-------10-10-10-10---10-10-10-10---10-|
d---12-12-12-12---12-12-12-12------12----------------------------------|
a----------------------------------------------------------------------|
e----------------------------------------------------------------------|

e------------------------------------------------------------------|
b------------------------------------10-10-10-10---10-10-10-10-10--|
g---10-10-10-10----10-10-10-10-12-10-------------------------------|
d------------------------------------------------------------------|
a------------------------------------------------------------------|
e------------------------------------------------------------------|


e-----------------------------------------------------------|
b---------------11-11-11-10---------------------------------|
g---9-9-9-10-12-------------12------------------------------|
d-----------------------------------------------------------|
a-----------------------------------------------------------|
e-----------------------------------------------------------|


e-----------------------------------------------------------------|
b------------------------------------10-10-10-10---10-10-10-10-10-|
g---10-10-10-10----10-10-10-10-12-10------------------------------|
d-----------------------------------------------------------------|
a-----------------------------------------------------------------|
e-----------------------------------------------------------------|
            
Submit corrections

↑ Back to top | Tablatures and chords for acoustic guitar and electric guitar, ukulele, drums are parodies/interpretations of the original songs. You may use it for private study, scholarship, research or language learning purposes only