Home » P » Primal Fear »

Primal Fear - Eye Of An Eagle Tabs

Artists:  A B C D E F G H I J K L M N O P Q R S T U V W X Y Z # 

Eye Of An Eagle Tabs

(ver. 1) Click to play this song!
Primal Fear
 [Riff A]
e|------------------------------------------------------------------|
B|------------------------------------------------------------------|
G|---------------------------------------------7ah------------------|
D|-----6/7-----6/7-----------6/7-----6/764/7------------------------| 
A|-4/6—4/5-4/6-4/5-4/7---4/6-4/5-4/6-4/542/5------------------------|
E|-2/4-----2/4-----2/5---2/4-----2/4--------------------------------|

Last time do a pick slide before verse.

 [Riff B]
e|-------------------------------------------------------------------|
B|-------------------------------------------------------------------|
G|-------------------------------------------------------------------|
D|-------------------------------------------------------------------| 
A|---4--6--4-66-4-66-4-66-4-66---------------------------------------|
E|---2--4--2-44-2-44-2-44-2-44-4ahb----------------------------------|
     .     . .. . .. . .. . ..

 [Riff C]
e|-------------------------------------------------------------------|
B|-------------------------------------------------------------------|
G|-------------------------------------------------------------------|
D|-9----8----7-------------------------------------------------------| 
A|-7----6----5----4/6-666---4/6-66---4/6-666---4/6-66----------------|
E|----------------2/4-444---2/4-44---2/4-444---2/4-44---4ahb---------|
                 . . ...   . . ..   . . ...   . . ..

e|--------------------7----------------------------|
B|------------------7---7--------------------------|
G|----------------7-------7------------------------|
D|--9----8------7----------------------------------| 
A|--7----6----5---------------7777-6666------------|
E|----------------------------5555-4444------------|
            . . .           .... ....

 [Riff D, higher version of Riff A, played with second chorus]
e|----------------------------------------------------------------|
B|----------------------------------------------------------------|
G|----------------------------------------------------------------|Guit I
D|-------8/98---------8/98-------------8/98---------8/98----------| 
A|-6/8---6/76---6/8---6/76-6/9---6/8---6/76---6/8---6/76----------|
E|-4/6-----------4/6---------4/7---4/6-----------4/6--------------|

e|--------------------------------------------------------------------|
B|--------------------------------------------------------------------|
G|--------------------------------------------------------------------|Guit II
D|--------------------------------------------------------------------| 
A|--888888and so on---------------------------------------------------|
E|--666666------------------------------------------------------------|
   ......

 [Riff E]
e|--------------------------------------------------------------------|
B|--------------------------------------------------------------------|
G|--------------------------------------------------------------------|
D|--------------------------------------------------------------------| 
A|-6----6----4/6-666---4/6-66---4/6-666---4/6-66----------------------|
E|-4----4----2/4-444---2/4-44---2/4-444---2/4-44---4ahb---------------|
            . . ...   . . ..   . . ...   . . ..

 [Riff F, solo riff]
e|--------------------------|------------------------------------------|
B|--------------------------|------------------------------------------|
G|--------------------------|------------------------------------------|
D|-6----4--6----4----2------|------------------------------------------| 
A|-4----2--4----2----0----4-|--6---------------------------------------|
E|------------------------2-|--4---------------------------------------|

e|--------|------------------------------------------------------------|
B|--------|------------------------------------------------------------|
G|--------|------------------------------------------------------------|
D|--------|-9--8--7--6--5----------------------------------------------| 
A|-4/6-66-|-7--6--5--4--3----------------------------------------------|
E|-2/4-44-|------------------------------------------------------------|
      ..

 [Riff G, ending over Riff A]
e|--------------------------------------------------------------------|
B|--------------------------------------------------------------------|
G|--------------------------------------------------------------------|
D|--------------------------------------------------------------------| 
A|-6666etc--4444etc—2222etc-------------------------------------------|
E|-4444-----2222-----0000---------------------------------------------|
             
Submit corrections

↑ Back to top | Tablatures and chords for acoustic guitar and electric guitar, ukulele, drums are parodies/interpretations of the original songs. You may use it for private study, scholarship, research or language learning purposes only