Home » P » Primal Fear »

Primal Fear - Dollars Tabs

Artists:  A B C D E F G H I J K L M N O P Q R S T U V W X Y Z # 

Dollars Tabs

(ver. 1) Click to play this song!
Primal Fear
[Intro: 2 times]
e|-------------|-------------|------------|--------------|| 
B|-------------|----sl.------|------------|--------------|| 
G|0------------|-----/5--4---|------------|-------------o|| 
D|0-2-4--7-4---|-2-4-/5--4---|-2-4--7-4---|-----4-------o|| 
A|--2-4--7-4---|-2-4---------|-2-4--7-4---|-------4--3---|| 
E|-------------|-------------|------------|---2----------|| 
                                                  AH__| 

[Verse 1]
e|--------10-------|-----------------------------||----------|---------| 
B|-10-------10-----|-----------------------------||----------|---------| 
G|-9-(B)______9(RB)|-9(B)_(RB)-7-9-9(B)_(RB)-7---||-9--------|---------| 
D|-----------------|---------------------------9-||-2--------|---------| 
A|-9---------------|-----------------------------||-2--------|---------| 
E|-7---------------|-----------------------------||-0--------|---------| 

e|----------------------------|----------------------------|---------|-------| 
B|----------------------------|----------------------------|---------|-------| 
G|--------2----------2------2-|--------2----------2------2-|---------|-------| 
D|--------2----------2------2-|--------2----------2------2-|-2-------|-------| 
A|----------------------------|----------------------------|-2-------|-------| 
E|-2--2-2----2-2-2-2----2-2---|-2--2-2----2-2-2-2----2-2---|-0-------|-------| 
    PM____|   PM_____|   PM_|    PM____|   PM_____|   PM_|

[Pre-Chorus 1]
e|----------------------------|----------------------------||--------|-------| 
B|----------------------------|----------------------------||--------|-------| 
G|--------2----------2------2-|--------2----------2------2-||-7------|-------| 
D|--------2----------2------2-|--------2----------2------2-||-7------|-7-----| 
A|----------------------------|----------------------------||-5------|-7-----| 
E|-2--2-2----2-2-2-2----2-2---|-2--2-2----2-2-2-2----2-2---||--------|-5-----| 
    PM____|   PM_____|   PM_|    PM____|   PM_____|   PM_|

                             Chorus 1: 2 times 
e|------|-----------------||------------|-----------|-----------|-----------|| 
B|------|-----------------||------------|----sl.----|-----------|-----------|| 
G|-6----|-----------------||o-----------|-----/5-4--|-----------|----------o|| 
D|-6----|-5-5-5-5-4-4-4-4-||o-2-4--7-4--|-2-4-/5-4--|-2-4--7-4--|---4------o|| 
A|-4----|-3-3-3-3-2-2-2-2-||--2-4--7-4--|-2-4-------|-2-4--7-4--|-----4--3--|| 
E|------|-----------------||------------|-----------|-----------|-2---------|| 
            PM_____________|                                            AH__| 

[Verse 2]
e|--------|----------------------------------||--------|-------| 
B|--------|----------------------------------||--------|-------| 
G|-4------|-(flick pickup switch on and off)-||--------|-------| 
D|-4------|----------------------------------||-2------|-------| 
A|-2------|----------------------------------||-2------|-------| 
E|--------|----------------------------------||-0------|-------| 

e|----------------------------|----------------------------|---------|-------| 
B|----------------------------|----------------------------|---------|-------| 
G|--------2----------2------2-|--------2----------2------2-|---------|-------| 
D|--------2----------2------2-|--------2----------2------2-|-2-------|-------| 
A|----------------------------|----------------------------|-2-------|-------| 
E|-2--2-2----2-2-2-2----2-2---|-2--2-2----2-2-2-2----2-2---|-0-------|-------| 
    PM____|   PM_____|   PM_|    PM____|   PM_____|   PM_|

[Pre-Chorus 2]
e|----------------------------|----------------------------||--------|-------| 
B|----------------------------|----------------------------||--------|-------| 
G|--------2----------2------2-|--------2----------2------2-||-7------|-------| 
D|--------2----------2------2-|--------2----------2------2-||-7------|-7-----| 
A|----------------------------|----------------------------||-5------|-7-----| 
E|-2--2-2----2-2-2-2----2-2---|-2--2-2----2-2-2-2----2-2---||--------|-5-----| 
    PM____|   PM_____|   PM_|    PM____|   PM_____|   PM_|

                             Chorus 2: 2 times 
e|------|-----------------||------------|-----------|-----------|-----------|| 
B|------|-----------------||------------|----sl.----|-----------|-----------|| 
G|-6----|-----------------||o-----------|-----/5-4--|-----------|----------o|| 
D|-6----|-5-5-5-5-4-4-4-4-||o-2-4--7-4--|-2-4-/5-4--|-2-4--7-4--|---4------o|| 
A|-4----|-3-3-3-3-2-2-2-2-||--2-4--7-4--|-2-4-------|-2-4--7-4--|-----4--3--|| 
E|------|-----------------||------------|-----------|-----------|-2---------|| 
PM_____________| AH__| 

Rhythm during solo: 6 times 
e|--------------|-----------||-------|-------|-------|-------|| 
B|--------------|-----------||-------|-------|-------|-------|| 
G|o------6--4---|----------o||-6-----|-2-----|-6-----|-2-----|| 
D|o-4-6--6--4---|----------o||-6-----|-2-----|-6-----|-2-----|| 
A|--4-6---------|-----------||-4-----|-0-----|-4-----|-0-----|| 
E|--------------|-----------||-------|-------|-------|-------|| 

[Solo]
e|--------|----------------|-------------|----------|------------------------| 
B|-7------|-(flick pickup--|-(7)---------|----------|-9(B)(RB)--7-9(B)__(RB)-| 
G|-6(B)---|--switch on and-|-(6)(B)--(feedback)-----|---------9--------------| 
D|--------|--off)----------|-------------|----------|------------------------| 
A|--------|----------------|-------------|----------|------------------------| 
E|--------|----------------|-------------|----------|------------------------| 
                                                       AH____________________| 

e|-----|--------------------------------|-------------------|-sl.----------| 
B|-----|--------------------------------|-------------------|-/9------9-11-| 
G|-----|--------------------------------|-------------------|--------------| 
D|-----|-8(b)(Rb)-8(b)(Rb)-8(b)(Rb)-----|-------9(B)(RB)----|--------------| 
A|-----|----------------------------9-6-|---6-9-------------|--------------| 
E|-----|--------------------------------|-7-----------------|--------------| 
                                                 AH 

e|------------------|---------------------|----------------------|| 
B|-12--11--9--------|-9-------------------|----------------------|| 
G|------------8--11-|--------P------------|----------------------|| 
D|------------------|-------/--------P---|----------------------|| 
A|------------------|------11-9-11----/--|-----7---------5------|| 
E|------------------|----------------11-9-|-7-9---9-7-5-7---7----|| 
                       AH                                    AH 

e|-sl.---------------11-|-15-(b)-12--14--16-|-sl.----------12--------------| 
B|-/14-------12-14-15---|-------------------|-/14------------14-12---------| 
G|---------14-----------|-------------------|---------------------------13-| 
D|----------------------|-------------------|----------------------14-16---| 
A|----------------------|-------------------|------------------------------| 
E|----------------------|-------------------|------------------------------|
  | 
e|--sl.--------------15-|-18-----16--17--19-|-sl.----------16--------------| 
B|-/17-------16-17-19---|-------------------|-/17------------17-16---------| 
G|---------17-----------|-------------------|------------------------------| 
D|----------------------|-------------------|----------------------18-19-20| 
A|----------------------|-------------------|------------------------------| 
E|----------------------|-------------------|------------------------------| 

e|--------------14-16------------------14-16-||
B|------14-15-17-----14--------14-15-17------||
G|-14-16---------------13-14-16--------------|| 
D|-------------------------------------------||
A|-------------------------------------------||
E|-------------------------------------------||
  | 
e|-----------------19---------------------19-||
B|---------19-21-22---------------19-21-22---||
G|-18-19-20----------20---18-19-20-----------||
D|---------------------20--------------------|| 
A|-------------------------------------------||
E|-------------------------------------------||

[Pre-Chorus 3]
e|--1721------|-------|------|-----------------|-----------------||
B|------------|-------|------|-----------------|-----------------|| 
G|-7----------|-------|-6----|-----------------|-----------------|| 
D|-7----------|-7-----|-6----|-5-5-5-5-4-4-4-4-|-3-3-3-3-2-2-2-2-|| 
A|-5----------|-7-----|-4----|-3-3-3-3-2-2-2-2-|-1-1-1-1-0-0-0-0-|| 
E|------------|-5-----|------|-----------------|-----------------|| 
                                PM_______________________________| 

Final Chorus: Repeat Till the end 
e|-------------|-------------|------------|--------------|| 
B|-------------|----sl.------|------------|--------------|| 
G|o------------|-----/5--4---|------------|-------------o|| 
D|o-2-4--7-4---|-2-4-/5--4---|-2-4--7-4---|-----4-------o|| 
A|--2-4--7-4---|-2-4---------|-2-4--7-4---|-------4--3---|| 
E|-------------|-------------|------------|---2----------|| 
                                                  AH__|

            
Submit corrections

↑ Back to top | Tablatures and chords for acoustic guitar and electric guitar, ukulele, drums are parodies/interpretations of the original songs. You may use it for private study, scholarship, research or language learning purposes only