Home » P » Primal Fear »

Primal Fear - Controlled Tabs

Artists:  A B C D E F G H I J K L M N O P Q R S T U V W X Y Z # 

Controlled Tabs

(ver. 1) Click to play this song!
Primal Fear
Taken from the album Black Sun.



Controlled By Primal Fear
 
Please note, this is only the intro, cos ive only been 
playing the guitar for a couple of weeks, but i am sure 
this is right. not 100%, but it sounds good.

e|------------------------------|
g|------------------------------|
b|------------------------------|
d|3-1-3-4-3-2-4-----------------|
a|3-1-3-4-3-2-4-----------------|
e|-------------000-000-000-000--|

e|----------------13b-----------|
g|------------------------------|
b|------------------------------|
d|3-1-3-4-3-1-0-2---------------|
a|3-1-3-4-3-1-0-2---------------|
e|------------------------------|

e|------------------------------|
g|------------------------------|
b|------------------------------|
d|3-1-3-4-3-2-4-----------------|
a|3-1-3-4-3-2-4-----------------|
e|-------------000-000-000-000--|

e|----------------13b-----------|
g|------------------------------|
b|------------------------------|
d|3-1-3-4-3-1-0-2---------------|
a|3-1-3-4-3-1-0-2---------------|
e|------------------------------|
            
Submit corrections

↑ Back to top | Tablatures and chords for acoustic guitar and electric guitar, ukulele, drums are parodies/interpretations of the original songs. You may use it for private study, scholarship, research or language learning purposes only