» » »

Powderfinger - On My Mind Tabs

Artists:  A B C D E F G H I J K L M N O P Q R S T U V W X Y Z # 

On My Mind Tabs

(ver. 3) Click to play this song!
Powderfinger
 Rating:
4/5 (4 votes)


 On My Mind lessons Tabs too difficult? Try these video lessons and learn fast
 
                SONG-(baby I've got you) on my mind
BAND-Powderfinger
ALBUM-Vulture Street
TUNING-E-A-D-G-B-E

LEGEND
/= slide
H= hammer
~= hold note
= STRUM DOWN
<= STRUM UP

          A#                    A#
e-----------------------------------------------------------------------
b-----------------------------------------------------------------------
g-----------------------------------------------------------------------
d----8--8--8--8--8/0--------8--8--8--8--8/0-----------PLAY-2-TIMES------
a----8--8--8--8--8/0--------8--8--8--8--8/0-----------------------------
e----6--6--6--6--6/0--------6--6--6--6--6/0-----------------------------
     >  >  >  >  >          >  >  >  >  >
 
VERSE- baby i've got you on my mind..................
         A#     g#   D#             A#     g#   D#
e----------------------------------------------------------------------
b----------------------------------------------------------------------
g-------------------8888-------------------------8888-------------------
d-----88888888-6666-8888---------88888888--6666--8888-------------------
a-----88888888-6666-6666---------88888888--6666--6666-------------------
e-----66666666-4444--------------66666666--4444-------------------------
      >><>><>> >><> ><>>         >><>><>>  >><>  ><>>

BRIDGE- Honey i've gotta show.....
            A#                           A#
e-----------------------------------------------------------------------
b--------------------------------------play 2 times---------------------
g---------play 2 times-------------H8----H8----H8----H8-----------------
d-----H8----H8----H8----H8-------6-H8--6-H8--6-H8--6-H8-----------------
a---6-H8--6-H8--6-H8--6-H8-------6-H6--6-H8--6-H8--6-H6-----------------
e---6-H6--6-H6--6-H6--6-H6----------------------------------------------
    >  >  >  >  >  >  >  >       >  >  >  >  >  >  >  >

CHORUS  (let these notes ring)- Hope you fee it the way i feel
      E#        D#       C#        F
e-----------------------------------------------------------------------
b-----------------------------------------------------------------------
g-----10--------8--------6----------------------------------------------
d-----10--------8--------6---------3------------------------------------
a-----8---------6--------4---------3------------------------------------
e----------------------------------1------------------------------------
      >         >        >         >

LEAD PARTS (each of these notes are played twice realy fast)
e-----------------------------------------------------------------------
b----1111111111111111--99999999---1717171717171717----------------------
g----1010101010101010--88888888---1515151515151515----------------------
d-----------------------------------------------------------------------
a-----------------------------------------------------------------------
e-----------------------------------------------------------------------

e-------6---4------6---4------------------------------------------------
b---------------6----------6~~~~6----4----------------------------------
g-----------------------------------------6-----------------------------
d-----------------------------------------------------------------------
a-----------------------------------------------------------------------
e-----------------------------------------------------------------------
there are alot more little fills for lead but i cant quit get them i keep trying 
and if i get 'em i'll add them.... I couldnt be stuffed putting in the oder cos
its so easy if you listen to the song. please rate it i think its a definet 3/4
but do what ever 

this is my first tab and it sounds pretty good to me but if you find mistakes
i earg you post them on correction for me.. critasisim's always good two
            
Submit corrections



        On My Mind lessons Hard to play? Try these video lessons and learn fast On My Mind lessons
        
↑ Back to top | Tablatures and chords for acoustic guitar and electric guitar, ukulele, drums are parodies/interpretations of the original songs. You may use it for private study, scholarship, research or language learning purposes only