» » »

Post Malone - Circles Tabs

Artists:  A B C D E F G H I J K L M N O P Q R S T U V W X Y Z # 

Circles Tabs

(ver. 1) Click to play this song!
Post Malone
 Rating:
4.3/5 (17 votes)

 Circles lessons Tabs too difficult? Try these video lessons and learn fast
 
                [Intro]

e|--------------------------------------------------------------|
B|-0-----0--0------------5-----5-5------------------------------|
G|--0-------0--12---12---5------5--12----12---------------------| 
D|---2------------19--------7----6-----19-----------------------| 
A|-3---3----5---------------------------------------------------|
F|-----------6------------0---0---0-----------------------------| 

e|--------------------------------------------------------------|
B|-0-----0--0------------5-5------5-5---------------------------|
G|--0-------0--12---12--5--7--7-5---7--7------------------------| 
D|---2------------19-----7--------6-----------------------------| 
A|-3---3----5---------------------------------------------------|
F|-----------6------------0----0---0----0-----------------------| 

[Verse 1]

e|---------------------------------------------------------------------------|
B|---------------------------------------------------------------------------|
G|-----------------------------------------------------0--0-0h2-0-0----------| 
D|-------------------5---5-5h7-5-5--2----------------------------------------| 
A|-------------------------------------3-------------------------------------|
F|-7-x-7-7/9-7-x-6--x-6-------x----0-x-0-2-0-x-0--x-0-2----x-----------------| 

e|----------------------------------------------------------------------------|
B|----------------------------------------------------------------------------|
G|----------------------------------------------------------------------------| 
D|--------------------5---5-5h7-5-5--2-2-0------0h2--2-0----------------------| 
A|--7----------------------------------3-------3------------------------------|
F|-/7-x-7-7/9-7-x-6--x-6------x-----0-x---0--x-----0-x----2-x-----------------| 

e|-------------------------------------------------------------------|
B|-------------------------------0-1---------------------------------|
G|--------------------4---4-4-4---2---------------2---2-2-0-0--------| 
D|--------------------5---5-5-5---3---------------3---3--------------| 
A|-------------------------------------------------------------------|
F|-/7-x-7-7/9-7-x-6--x-6---x----0-x-0-2-0-x-0---x-0---x--------------| 

e|-------------------------------------------------------------------|
B|-------------------------------0-1---------------------------------|
G|--------------------4---4-4-4---2---------------2---2-2-0-0--------| 
D|--------------------5---5-5-5---3---------------3---3--------------| 
A|-/7----------------------------------------------------------------|
F|-/7-x-7-7/9-7-x-6--x-6---x----0-x-0-2-0-x-0---x-0---x--------------| 

e|------------------------------------------------------------------------|
B|---------------------5---5-5-5-------1------------/5--5-5-5-5h8-5-------|
G|---------------------5---5----5h7---2------------/5---5----------5------| 
D|---------------------5---5-----------3------------/6---6----------5-----| 
A|-/7---------------------------------------------------------------------|
F|-/7-x-7-7/9-7-x-6---x-6----x----0-x-0-2-0-x-0---x-0---x-----7--x--------| 

e|--------------------------------------------------------------------|
B|---------------------5---5-5-5-------1------------1h3---3-3-1-1-----|
G|---------------------5---5----5h7---2-------------2-----2-----------| 
D|---------------------5---5-----------3-------------3-----3----------| 
A|--------------------------------------------------------------------|
F|-------7-7/9-7-x-6---x-6----x----0-x-0-2-0-x-0-----x-0------x-------| 

[Chorus]

e|------------------------------------------------------------------|
B|----5-----------------------------5-------------------------------|
G|----5-7-7-5-5-4-4---4/5--------5-7-7-5-5--4-4---4/5---------------| 
D|----5---5------5------5---7-5---7------------6-----6---7-5--------| 
A|------------------------------------------------------------------|
F|-7--x---7----x-6---x-6---x----0-x---0----x--0---x-0---x-----------| 

e|-----------------------------------0------------------------------|
B|----5-----------------------------1--3-3----/5--------5h6-5-------|
G|----5-7-7-5-5-4-4---4/5--------2---------/5-7-7--5----------------| 
D|----5---5------5------5---7-5---3---------/6----------------------| 
A|------------------------------------------------------------------|
F|-7--x---7----x-6---x-6---x----0-x----0-x-0------x-0----x----------| 

e|------------------------------------------------------------|
B|-/8-------5-------------5h6-5-/8--8-5-----------5-----------|
G|---------------7------5-------------5-------7---5--5-7-5----| 
D|-------------------------------------7-------6--------------| 
A|------------------------------------------------------------|
F|---7-7-x-7-x----6-x-6------x----0-x--0-x-0-x------x---------| 

e|-----------------------------------------------------------------|
B|----5-----------------------------5--------5-------5-------------|
G|----5-7-7-5-5-4-4---4/5--------5-7-7-----7-7----7-7-5------------| 
D|----5---5------5------5---7-5---7----------6---------------------| 
A|-----------------------------------------------------------------|
F|-7--x---7----x-6---x-6---x----0-x---0-x---0---x----x-------------| 

[Verse 2]

e|------------------------------------------------------------------|
B|------------------------------------------------------------------|
G|-0h2-0----------------------------------------------------0--0-0--| 
D|-2-------------------5--5-5-5-5-5-2-2-0---------------------------| 
A|-3--------------------------------7-3-3---------------------------|
F|--------x-7/9-7-x-6--x-6---x---0----x-0-x-0-x-0-x-0-2--x----------| 

e|--------------------------------------------------------------------|
B|-----------------------------------------------------------1-1-1-1--|
G|-0h2-0---------------------------------------------------0----------| 
D|-2-------------------5--5-5-5-5-5-2-2-0-----------------------------| 
A|-3--------------------------------7-3-3-----------------------------|
F|--------x-7/9-7-x-6--x-6---x---0----x-0-x-0-x-0-x-0-2---------------| 

e|------------------------------------------------------------|
B|-5-----------5------------------5------5--------------------|
G|-5-7--------5-7---5-5-5-5-5--5-7----5-7---5-5-5-5-5---------| 
D|-5----------5------5-----------7-----7---6---6--------------| 
A|------------------------------------------------------------|
F|-7-x-7/9-7-x-6-x-6------x----0-x-0--x-0-x-0------x----------| 

e|-----------------------------------------------------------------|
B|-5-----------5---------------------------------------------------|
G|-5-7--------5-7---5-5-5-5-5--5-2-2-0-----------------------------| 
D|-5----------5------5-----------7-3-3-3-----7--10--12-------------| 
A|----------------------------------------------8--12--14----------|
F|-7-x-7/9-7-x-6-x-6------x----0---x-0-x-0--x----x---x-------------| 

[Chorus]

e|---------------------------------------------------------------|
B|----5-----------------------------5----------------------------|
G|----5-7-7-5-5-4-4---4/5--------5-7-7-5-5--4-4---4/5------------| 
D|----5---5------5------5---7-5---7------------6-----6---7-5-----| 
A|---------------------------------------------------------------|
F|-7--x---7----x-6---x-6---x----0-x---0----x--0---x-0---x--------| 

e|-----------------------------------0------------------------------|
B|----5-----------------------------1--3-3----/5--------5h6-5-------|
G|----5-7-7-5-5-4-4---4/5--------2---------/5-7-7--5----------------| 
D|----5---5------5------5---7-5---3---------/6----------------------| 
A|------------------------------------------------------------------|
F|-7--x---7----x-6---x-6---x----0-x----0-x-0------x-0----x----------| 

e|------------------------------------------------------------|
B|-/8-------5-------------5h6-5-/8--8-5-----------5-----------|
G|---------------7------5-------------5-------7---5--5-7-5----| 
D|-------------------------------------7-------6--------------| 
A|------------------------------------------------------------|
F|---7-7-x-7-x----6-x-6------x----0-x--0-x-0-x------x---------| 

e|------------------------------------------------------------------|
B|----5-----------------------------5--------5-------5--------------|
G|----5-7-7-5-5-4-4---4/5--------5-7-7-----7-7----7-7-5-------------| 
D|----5---5------5------5---7-5---7----------6----------------------| 
A|------------------------------------------------------------------|
F|-7--x---7----x-6---x-6---x----0-x---0-x---0---x----x--------------| 

[Verse 3]

e|------------------------------------------------------------|
B|---5-----------------5-5h6-5---5---------5-5h6-5------------|
G|---5-7-7-5-5-5-5-5------------5-7-7---5---------------------| 
D|---5----------5----------------7--------6-------------------| 
A|------------------------------------------------------------|
F|-7-------------6--------------0--------0--------------------| 

e|--------------------------------------------------------------|
B|---5-----------------5-5h6-5---5------------------------------|
G|---5-7-7-5-5-5-5-5------------5-7-7---------------------------| 
D|---5----------5----------------7---------7--10--12------------| 
A|------------------------------------------8--12--14-----------|
F|-7-------------6--------------0--------x--x---x----x----------| 

[Chorus]

e|---------------------------------------------------------------|
B|----5-----------------------------5----------------------------|
G|----5-7-7-5-5-4-4---4/5--------5-7-7-5-5--4-4---4/5------------| 
D|----5---5------5------5---7-5---7------------6-----6---7-5-----| 
A|---------------------------------------------------------------|
F|-7--x---7----x-6---x-6---x----0-x---0----x--0---x-0---x--------| 

e|-----------------------------------0------------------------------|
B|----5-----------------------------1--3-3----/5--------5h6-5-------|
G|----5-7-7-5-5-4-4---4/5--------2---------/5-7-7--5----------------| 
D|----5---5------5------5---7-5---3---------/6----------------------| 
A|------------------------------------------------------------------|
F|-7--x---7----x-6---x-6---x----0-x----0-x-0------x-0----x----------| 

e|------------------------------------------------------------|
B|-/8-------5-------------5h6-5-/8--8-5-----------5-----------|
G|---------------7------5-------------5-------7---5--5-7-5----| 
D|-------------------------------------7-------6--------------| 
A|------------------------------------------------------------|
F|---7-7-x-7-x----6-x-6------x----0-x--0-x-0-x------x---------| 

e|------------------------------------------------------------------|
B|----5-----------------------------5--------5-------5--------5-----|
G|----5-7-7-5-5-4-4---4/5--------5-7-7-----7-7----7-7-5--5----------| 
D|----5---5------5------5---7-5---7----------6---------------5------| 
A|------------------------------------------------------------------|
F|-7--x---7----x-6---x-6---x----0-x---0-x---0---x----x-----7--------|            
Submit corrections


        Circles lessons Hard to play? Try these video lessons and learn fast Circles lessons
        
↑ Back to top | Tablatures and chords for acoustic guitar and electric guitar, ukulele, drums are parodies/interpretations of the original songs. You may use it for private study, scholarship, research or language learning purposes only