Home » P » Postal Service »

Postal Service - Recycled Air Tabs

Artists:  A B C D E F G H I J K L M N O P Q R S T U V W X Y Z # 

Recycled Air Tabs

(ver. 3) Click to play this song!
Postal Service
___________________________________________________________
THE POSTAL SERVICE                             RECYCLED AIR


CAPO ON 4TH

INTRO also used for the vocalization part      
e||----------0---------------0---------------0--------------------
B||--1---1-3---------1---1-3---3-----1---1-3-----3---1-0---0-0-0--
G||--0---0-----------0---0-----------0---0-------0-0-0-0-0---0-0--
D||--------------3-3---3---------------------------0---------0-0--
A||3---3-------0-----------------3-3---3-------0-------------2-2--
E||---------------------------------------------------------------

e||------------0---------------0---------------0-------------------|
B||----1---1-3---------1---1-3---3-----1---1-3-----3---1-0---0-0-0-|
G||----0---0-----------0---0-----------0---0-------0-0-0-0-0---0-0-|
D||02--------------3-3---3---------------------------0---------0-0-|
A||3-3---3-------0-----------------3-3---3-------0-------------2-2-|
E||----------------------------------------------------------------|

CHORDS FOR VERSE 1/2 - VOCALIZATION IN BETWEEN
e||---0---0---0-------0---0---0-------|
B||---1---1---1---3---1---1---1---3---|
G||---0---2---0---0---0---2---0---0---|
D||---2---3---2---0---2---3---2---0---|
A||---3---0---3---2---3---0---3---2---|
E||---------------3---------------3---|
      C Fmaj7 C   G   C Fmaj7 C   G

VOCALIZATION

BRIDGE TO CHORUS 1
e||------------0---------------0---------------------|
B||----1---1-3---------1---1-3---0-1-1-1-1-1-1-1-1-1-|
G||----0---0-----------0---0-------0-0-0-0-0-0-0-0-0-|
D||02------------0-3-3---3---------2-2-2-2-2-2-2-2-2-|
A||3-3---3-------------------------3-3-3-3-3-3-3-3-3-|
E||--------------------------------0-0-0-0-0-0-0-0-0-|

CHORDS FOR CHORUS 1                      CHORDS FOR CHORUS 2
e||---0------0------0------0------0---|  e||---0-------0---0---0-------0---1---0---|
B||---1------0------1------0------1---|  B||---1---3---0---1---1---3---0---1---1---|
G||---0------2------0------2------0---|  G||---0---0---0---2---0---0---0---2---0---|
D||---2------3------2------3------2---|  D||---2---0---2---3---2---0---2---3---2---|
A||---3------0------3------0------3---|  A||---3---2---2---0---3---2---2---3---3---|
E||-----------------------------------|  E||-------3---0-----------3---0---1-------|
      C  Fflat5maj7 C  Fflat5maj7 C            C   G  Em Fmaj7 C   G  Em   F   

OUTRO
e||------------0---------------0---------------0-----------|
B||1-1-1---1-3---------1---1-3---------1---1-3-----3---1-0-|
G||0-0-0---0-----------0---0-----0-----0---0-----0-0-0-0-0-|
D||2-2-------------3-3---3-----------------------0---0---0-|
A||3-3---3-------0-----------------3-3---3-------2---------|
E||0-0-----------------------------------------------------|





LYRICS

I take a breath
and pull the air in 'til there's nothing left
I'm feeling green
like teenage lovers between the sheets

pa pa-pa-pa pa pa-pa-pa pa pa-pa-pa pa pa pa
pa pa-pa-pa pa pa-pa-pa pa pa-pa-pa pa pa pa

knuckles clenched to white
as the landing gear detract for flight
my head's a balloon
inflating with the altitude

pa pa-pa-pa pa pa-pa-pa pa pa-pa-pa pa pa pa
pa pa-pa-pa pa pa-pa-pa pa pa-pa-pa pa pa pa

I watch the patchwork farms'
slow fade into the ocean's arms
and from here they can't see me stare
the stale taste of recycled air

I watch the patchwork farms'
slow fade into the ocean's arms
so calm down, release your cares
the stale taste of recycled air
            
Submit corrections

↑ Back to top | Tablatures and chords for acoustic guitar and electric guitar, ukulele, drums are parodies/interpretations of the original songs. You may use it for private study, scholarship, research or language learning purposes only