Home » P » Postal Service »

Postal Service - Brand New Colony Tabs

Artists:  A B C D E F G H I J K L M N O P Q R S T U V W X Y Z # 

Brand New Colony Tabs

(ver. 1) Click to play this song!
Postal Service
Postal Service : Brand New Colony
Tuning : Standard
Capo : 5th gret

All tabs and chords are relative to the capo


Intro ::

e|------------------------------3-----3-------------------|
b|--3--0--3--0--3--0--3---0--1-----1-----1----------------|
g|------------------------------------------0-0-----------|  x4
a|--------------------------------------------------------|
d|--3--3--3--3--3--3--3---3--3--3--3--3--3--0-0-----------|
E|--------------------------------------------------------|


[optional when playing the intro for the fourth time]


e|----------------------------------3------------3-------------3----------|
b|--3--0--3--0--3--0--3---0--0h1p0-----0---0h1p0----0---0h1p0-----0-------|
g|-------------------------------------------------------------------0**--|  
a|------------------------------------------------------------------------|
d|--3--3--3--3--3--3--3---3--3---------3---3--------3---3---------3--0**--|
E|------------------------------------------------------------------------|



Verse ::

e|----3-3-3-3----3-3-3-3-----2-2-2-2----2-2-2-2----0-0-0-0----3-3-3-3---|
b|----3-3-3-3----3-3-3-3-----3-3-3-3----3-3-3-3----1-1-1-1----1-1-1-1---|
g|----0-0-0-0----0-0-0-0-----2-2-2-2----2-2-2-2----0-0-0-0----0-0-0-0---|
d|----------------------------------------------------------------------|x2
a|-------------------------0----------0-----------3----------3----------|
E|--3----------3--------------------------------------------------------|

    I'll be.......         bottles and.....       and my finest...
    I'll be.......         bolted to the....      you will sit and...


Verse 2 ::

e|-3------------------2--------------0------3-----------|
b|-3------------------3--------------1------1-----------|
g|-0------------------2--------------0------0-----------|
d|--------------------0--------------3------3-----------|
a|-2----------------------------------------------------|
E|-3----------------------------------------------------|
   p.m ->>>



e|-3------------------2----------------0----------3-----------|
b|-3------------------3----------------1----------1-----------|
g|-0------------------2----------------0----------0-----------|
d|--------------------0----------------3----------3-----------|
a|-2---------------------------------------------------------|
E|-3---------------------------------------------------------|
   p.m ->>>

   I'll be the...    save you...      open tab..  judegments.. 
   I'll be the...    plays your..     lying...    drifting..
   I'll be the...    undo what...     have to..   look...
   I'll be your..    button zip...    collar up.. so you wont...


Chorus ::

e|-3-------------3--------------------0---------------3--3--|
b|-3-------------2--------------------1---------------3--3--|
g|-0-------------3--------------------0---------------0--0--|
d|---------------0--------------------2---------------------|x4
a|-2----------------------------------3---------------2--0--|
E|-3--------------------------------------------------3--2--|
   I want to...  from the cynics...   kiss you on..
   We'll cut..   from the tethers...  start a brand...
   Where every.. we'll give our...    identities....
   The sun...    under our barefeet.. in this brand...


Outro::

e|-3-------------3--------------------0---------------3--3--|
b|-3-------------2--------------------1---------------3--3--|
g|-0-------------3--------------------0---------------0--0--|
d|---------------0--------------------2---------------------|x2
a|-2----------------------------------3---------------2--0--|
E|-3--------------------------------------------------3--2--|

   Every          thing               will change     OO oo  
   Every          thing               will change     OO oo         


e|--3*--|
b|--3*--|
g|--0*--|
d|--0*--|
a|--2*--|
E|--3*--|



* - let ring
p.m - palm mute
h- hammer on
p- pull off

sorry i got lazy writing out all the chords...

Strum Pattern: 

Verse - bass note, down up down up, bass note down up down up
verse 2 - palm mute down strokes throughout
chorus - strum freely down up down up



hope this is legit.
            
Submit corrections

↑ Back to top | Tablatures and chords for acoustic guitar and electric guitar, ukulele, drums are parodies/interpretations of the original songs. You may use it for private study, scholarship, research or language learning purposes only