» » »

Possessed - The Eyes Of Horror Tabs

Artists:  A B C D E F G H I J K L M N O P Q R S T U V W X Y Z # 

The Eyes Of Horror Tabs

(ver. 1) Click to play this song!
Possessed
 Rating:
4.4/5 (14 votes)

 The Eyes Of Horror  lessons Tabs too difficult? Try these video lessons and learn fast
 
                uning E A D G B E

Intro:
 Riff A
|--------------------------------------------------------------------------------|
|--------------------------------------------------------------------------------|
|-------------------------------------4-3--2/4-----------------------------------|
|-4-------------------------------5-4------2/4-----------------------------------|
|-2--2-2-2-2-2-2-2-2-2-2-2-2--3-2------------------------------------------------|
|--------------------------------------------------------------------------------|

 (0:11)
|-------------------------------------------------------------------|
|-------------------------------------------------------------------|
|-------------------------------------------------------------------|
|-7-----------------------------------------------------------------|
|-5-----------------------------------------------------------------|
|-------------------------------------------------------------------|



 Chorus:
 Repeat Riff A (x8)



 Riff B
|----------------------------------------------------------------------------------------------------|
|----------------------------------------------------------------------------------------------------|
|----------------------------------------------------------------------------------------------------|      
|----------------------------------------------------------------------------------------------------|    X4
|---------------------------5-5-5-5-5-5-5-5-5-5-5-5-------------------------4-4-4-4-4-4-4-4-4-4-4-4--|
|-7-7-7-7-7-7-7-7-7-7-7-7-7-6-6-6-6-6-6-6-6-6-6-6-6-2-2-2-2-2-2-2-2-2-2-2-2-5-5-5-5-5-5-5-5-5-5-5-5--|



 Verse: 
 Repeat Riff A (x4)
 Repeat Riff B (x2)



 Riff C
|-------------------------------------------------------------------|
|-------------------------------------------------------------------|
|-------------------------------------------------------------------|
|-4----4-------PH----4-----4----------------------------------------|   X8
|-2----2-3------2----2-----2-3----2-3-5-3-2-------------------------|
|--------1-------------------1--------------------------------------|



 Solo (Rhythm)

 Riff D
 Gtr. 1
|----------------------------------------------------------------------------|
|----------------------------------------------------------------------------|
|----------------------5-4-2-------------------------------------------------|
|-4--------------------------5-4-2-4-5-4-------------------------------------|   x20
|-2-2-2-2-2-2-2-2-2-2--------------------------------------------------------|
|----------------------------------------------------------------------------|

 Gtr. 2
|---------------------------8-7-5-----------------------------------------------|
|-0-0-0-0-0-0-0-0-0-0-0-0-0-------8-7-5-7-8-7-----------------------------------|
|-------------------------------------------------------------------------------|
|-------------------------------------------------------------------------------| x20
|-------------------------------------------------------------------------------|
|-------------------------------------------------------------------------------|
 
 Outro (Light change of speed)
 
 Repeat this (x15                                        And this is in the last time (16)
|-----------------------------------------------------|------------------------------------------|
|-----------------------------------------------------|------------------------------------------|
|-------------------------------------4-3--2/4--------|------------------------------------------| 
|-4-------------------------------5-4------2/4--------|---4-4-4-4-4-4-4-4-4-(Let ring)-----------|
|-2--2-2-2-2-2-2-2-2-2-2-2-2--3-2---------------------|---2-2-2-2-2-2-2-2-2----------------------|
|-----------------------------------------------------|------------------------------------------|

 END            
Submit corrections


        The Eyes Of Horror  lessons Hard to play? Try these video lessons and learn fast The Eyes Of Horror  lessons
        
↑ Back to top | Tablatures and chords for acoustic guitar and electric guitar, ukulele, drums are parodies/interpretations of the original songs. You may use it for private study, scholarship, research or language learning purposes only