» » »

Possessed - Excorsist Tabs

Artists:  A B C D E F G H I J K L M N O P Q R S T U V W X Y Z # 

Excorsist Tabs

(ver. 1) Click to play this song!
Possessed
 Rating:
4/5 (4 votes)

 Excorsist lessons Tabs too difficult? Try these video lessons and learn fast
 
                (Intro)
THE EXCORSIST INTRO
                              POSSESSED

This melody is usally called "Tubular Bells" or "The Excorsist Theme". It´s from the great 
old horrormovie "The Excorsist" in case you didn´t know... It´s made for guitar and bass
but the bass can be replaced by another guiatar. The whole tab of this great song is to be 
crash into the next riff...


---6---8-----6---9---11---8-9-
-6---6---6-9---6---6----6-----
------------------------------
------------------------------
------------------------------
------------------------------


------------------------
------------------------
-8--6--4--3--1----------
----------------4--2--1-
            
Submit corrections


        Excorsist lessons Hard to play? Try these video lessons and learn fast Excorsist lessons
        
↑ Back to top | Tablatures and chords for acoustic guitar and electric guitar, ukulele, drums are parodies/interpretations of the original songs. You may use it for private study, scholarship, research or language learning purposes only