Home » P » Portishead »

Portishead - Glory Box Tabs

Artists:  A B C D E F G H I J K L M N O P Q R S T U V W X Y Z # 

Glory Box Tabs

(ver. 2) Click to play this song!
Portishead
[Intro]
Strings arrenged for guitar :

e|--------11-14---|--18-------16---------------|
B|-----11---------|--------19----16------------|
G|----------------|----------------------------|
D|----------------|----------------------------|
A|----------------|----------------------------|
E|----------------|----------------------------|

[Verse]
   D#m      F#6/C#    D#m/C    B7M
     ^      ^          ^       ^
e|--6---------------|------------------|
B|--7-------7-------|--7-------7-------|
G|--8-------x-------|--8-------8-------|
D|--8-------8-------|--8-------8-------|
A|--6-------x-------|--x-------x-------|
E|----------9-------|--8-------7-------| x4

You can also play like this variation :
   D#m      F#6/C#    D#m/C    B7M
     ^      ^          ^       ^
e|--6---------------|------------------|
B|--7-------7-------|--4-------4-------|
G|--8-------8-------|--3-------3-------|
D|--8-------8-------|--4-------4-------|
A|--6-------4-------|--3-------2-------|
E|------------------|------------------|


[Verse]
   D#m      F#6/C#    D#m/C    B7M
     ^      ^          ^       ^
e|--6---------------|------------------|
B|--7-------7-------|--7-------7-------|
G|--8-------x-------|--8-------8-------|
D|--8-------8-------|--8-------8-------|
A|--6-------x-------|--x-------x-------|
E|----------9-------|--8-------7-------| x4


[Chorus]
    D#5        C#5               C5(b5)      B5
e|----------------------------|----------------------------|
B|----------------------------|----------------------------|
G|--------8b----------6b------|--------5b----------4b------|
D|-----8-----------6----------|-----4-----------4----------|
A|--6--------6--4--------4----|--3--------3--2--------2----|
E|----------------------------|----------------------------| x2

[Break]
                                 4:12
    D#5        C#5               C5(b5)      
e|----------------------------|----------------------------|
B|----------------------------|----------------------------|
G|--------8b----------6b------|--------5-------------------|
D|-----8-----------6----------|-----4----------------------|
A|--6--------6--4--------4----|--3-------------------------|
E|----------------------------|----------------------------|


Guitar II

[Chorus 1 & 2]
e|----------------|----------------|
B|-----11----9----|-----7-----6----|
G|-----13b---11b--|-----9b----8b---|
D|----------------|----------------|
A|----------------|----------------|
E|----------------|----------------| x2


[Solo]
2:20
e|---------------------------------------|
B|---------------------------------------|
G|----13b-----13----13L----13~---13---11-|
D|---------------------------------------|
A|---------------------------------------|
E|---------------------------------------|

e|-------------------------------------|
B|-------------------------------------|
G|--13b---13-------------11------13b---|
D|--------------13---------------------|
A|-------------------------------------|
E|-------------------------------------|

e|-----------------------------------------------|
B|-------9b----9b----9b----9b----9b----9b----9b--|
G|--13b------------------------------------------|
D|-----------------------------------------------|
A|-----------------------------------------------|
E|-----------------------------------------------|

e|-----------------------------------------------------------|
B|-11--------------------------------------------------------|
G|-----13--11---13b----13------11-----11------11-----11------|
D|------------------------------------------------------13---|
A|-----------------------------------------------------------|
E|-----------------------------------------------------------|

e|----------------------------------------------------|
B|-----------------------------------------13---------|
G|-----------------------------------------15b--------|
D|----------------------------------------------------|
A|----------------------------------------------------|
E|----------------------------------------------------|

e|----------|
B|--11-9----|
G|--13b11b--|
D|----------|
A|----------|
E|----------|

e|-----------------------------------------------------|
B|--7----------------6L--------------6--6--------------|
G|--9b---------------8b--------------------7-8---7-----|
D|-----------------------------------------------------|
A|-----------------------------------------------------|
E|-----------------------------------------------------|

e|-----------------------------------------------------|
B|------------7L-------7-----------------9------9------|
G|--7b----8--------------------8L---8------------------|
D|-----------------------------------------------------|
A|-----------------------------------------------------|
E|-----------------------------------------------------|

e|----------------------------------------------------------|
B|----------------------------------------------------------|
G|----------------------------------------------------------|
D|----------6-------6b-----6b-----6b-----6b-----6b-----6b---|
A|-----9----------------------------------------------------|
E|----------------------------------------------------------|

[Verse 3]
e|----------------|----------------|
B|----------------|----------------|
G|-----8-----6----|-----5-----4----|
D|-----11b---9b---|-----8b----7b---|
A|----------------|----------------|
E|----------------|----------------| x2            
Submit corrections

↑ Back to top | Tablatures and chords for acoustic guitar and electric guitar, ukulele, drums are parodies/interpretations of the original songs. You may use it for private study, scholarship, research or language learning purposes only