» » »

Porches - Glow Tabs

Artists:  A B C D E F G H I J K L M N O P Q R S T U V W X Y Z # 

Glow Tabs

(ver. 1) Click to play this song!
Porches
 Rating:
4.4/5 (5 votes)

 Glow  lessons Tabs too difficult? Try these video lessons and learn fast
 
                Tuning: Standard

Guitar One:
e|------------------18---------------------------18-17-13-11-----------------|
B|------------16-15------------------------16-15-----------------------------|
G|-----------------------(3x)------------------------------------------------|
D|----5-8--------------------------5-8---------------------------------------|
A|--8----------------------------8-------------------------------------------|
E|---------------------------------------------------------------------------|

Guitar Two:
e|---------------------------------------------------------------------------|
B|---------------------------------------------------------------------------|
G|---------------------------------------------------------------------------|
D|---------------------------------------------------------------------------|
A|--10-10-10-10-10-10-10-10-6-6-6-6-6-6-6-6----------------------------------| 3x
E|---------------------------------------------------------------------------|

e|---------------------------------------------------------------------------|
B|---------------------------------------------------------------------------|
G|---------------------------------------------------------------------------|
D|---------------------------------------------------------------------------|
A|--10-10-10-10-10-10-10-10-6-6-6-6-8-8-8-8----------------------------------| 1x
E|---------------------------------------------------------------------------|

Guitar One:
e|---------------------------------------------------------------------------|
B|---------------------------------------------------------------------------|
G|---------------------------------------------------------------------------|
D|---------------------------------------------------------------------------|
A|--10--10----5---6--6----8--8--5--------------------------------------------| 3x
E|---------------------------------------------------------------------------|

Guitar Two:
e|---------------------------------------------------------------------------|
B|---------------------------------------------------------------------------|
G|--7------------3-------5---------------------------------------------------|
D|---------------------------------------------------------------------------|
A|---------------------------------------------------------------------------| 3x
E|---------------------------------------------------------------------------|

Guitar One:
e|------------------18---------------------------18-17-13-11-----------------|
B|------------16-15------------------------16-15-----------------------------|
G|---------------------------------------------------------------------------|
D|----5-8--------------------------5-8---------------------------------------|
A|--8----------------------------8-------------------------------------------| 1x
E|---------------------------------------------------------------------------|

Guitar Two:
e|---------------------------------------------------------------------------|
B|---------------------------------------------------------------------------|
G|---------------------------------------------------------------------------|
D|---------------------------------------------------------------------------|
A|--10-10-10-10-10-10-10-10-6-6-6-6-6-6-6-6----------------------------------| 1x
E|---------------------------------------------------------------------------|

e|---------------------------------------------------------------------------|
B|---------------------------------------------------------------------------|
G|---------------------------------------------------------------------------|
D|---------------------------------------------------------------------------|
A|--10-10-10-10-10-10-10-10-6-6-6-6-8-8-8-8----------------------------------| 1x
E|---------------------------------------------------------------------------|

Guitar One:
e|---------------------------------------------------------------------------|
B|---------------------------------------------------------------------------|
G|---------------------------------------------------------------------------|
D|---------------------------------------------------------------------------|
A|--10--10----5---6--6----8--8--5--------------------------------------------| 3x
E|---------------------------------------------------------------------------|

Guitar Two:
e|---------------------------------------------------------------------------|
B|---------------------------------------------------------------------------|
G|--7------------3-------5---------------------------------------------------|
D|---------------------------------------------------------------------------|
A|---------------------------------------------------------------------------| 3x
E|---------------------------------------------------------------------------|

Guitar One:
e|------------------18---------------------------18-17-13-11-----------------|
B|------------16-15------------------------16-15-----------------------------|
G|---------------------------------------------------------------------------|
D|----5-8--------------------------5-8---------------------------------------|
A|--8----------------------------8-------------------------------------------| 1x
E|---------------------------------------------------------------------------|

Guitar Two:
e|---------------------------------------------------------------------------|
B|---------------------------------------------------------------------------|
G|---------------------------------------------------------------------------|
D|---------------------------------------------------------------------------|
A|--10-10-10-10-10-10-10-10-6-6-6-6-6-6-6-6----------------------------------| 1x
E|---------------------------------------------------------------------------|

e|---------------------------------------------------------------------------|
B|---------------------------------------------------------------------------|
G|---------------------------------------------------------------------------|
D|---------------------------------------------------------------------------|
A|--10-10-10-10-10-10-10-10-6-6-6-6-8-8-8-8----------------------------------| 1x
E|---------------------------------------------------------------------------|

Guitar One:
e|---------------------------------------------------------------------------|
B|---------------------------------------------------------------------------|
G|---------------------------------------------------------------------------|
D|---------------------------------------------------------------------------|
A|--10-10--8-6---8-8--6-5---10-10--8-6---8-8--6-5----------------------------| 2x
E|---------------------------------------------------------------------------|

e|---------------------------------------------------------------------------|
B|---------------------------------------------------------------------------|
G|---------------------------------------------------------------------------|
D|---------------------------------------------------------------------------|
A|--10-10--8-6---8-8--6-5---10-10--8-6---8-8--6-5-6-8-10---------------------| 1x
E|---------------------------------------------------------------------------|

Guitar Two
e|---------------------------------------------------------------------------|
B|---------------------------------------------------------------------------|
G|---------------------------------------------------------------------------|
D|---------------------------------------------------------------------------|
A|---------------------------------------------------------------------------| 3x
E|---------------------------------------------------------------------------|

Guitar One:
e|---------------------------------------------------------------------------|
B|---------------------------------------------------------------------------|
G|---------------------------------------------------------------------------|
D|---------------------------------------------------------------------------|
A|--10--10----5---6--6----8--8--5--------------------------------------------| 3x
E|---------------------------------------------------------------------------|

Guitar Two:
e|---------------------------------------------------------------------------|
B|---------------------------------------------------------------------------|
G|--7------------3-------5---------------------------------------------------|
D|---------------------------------------------------------------------------|
A|---------------------------------------------------------------------------| 3x
E|---------------------------------------------------------------------------|

Guitar One:
e|------------------18---------------------------18-17-13-11-----------------|
B|------------16-15------------------------16-15-----------------------------|
G|---------------------------------------------------------------------------|
D|----5-8--------------------------5-8---------------------------------------|
A|--8----------------------------8-------------------------------------------| 1x
E|---------------------------------------------------------------------------|

Guitar Two:
e|---------------------------------------------------------------------------|
B|---------------------------------------------------------------------------|
G|---------------------------------------------------------------------------|
D|---------------------------------------------------------------------------|
A|--10-10-10-10-10-10-10-10-6-6-6-6-6-6-6-6----------------------------------| 1x
E|---------------------------------------------------------------------------|

e|---------------------------------------------------------------------------|
B|---------------------------------------------------------------------------|
G|---------------------------------------------------------------------------|
D|---------------------------------------------------------------------------|
A|--10-10-10-10-10-10-10-10-6-6-6-6-8-8-8-8----------------------------------| 1x
E|---------------------------------------------------------------------------|

Guitar One:
e|---------------------------------------------------------------------------|
B|---------------------------------------------------------------------------|
G|---------------------------------------------------------------------------|
D|---------------------------------------------------------------------------|
A|--10--10----5---6--6----8--8--5--------------------------------------------| 3x
E|---------------------------------------------------------------------------|

Guitar Two:
e|---------------------------------------------------------------------------|
B|---------------------------------------------------------------------------|
G|--7------------3-------5---------------------------------------------------|
D|---------------------------------------------------------------------------|
A|---------------------------------------------------------------------------| 3x
E|---------------------------------------------------------------------------|

Guitar One:
e|------------------18---------------------------18-17-13-11-----------------|
B|------------16-15------------------------16-15-----------------------------|
G|---------------------------------------------------------------------------|
D|----5-8--------------------------5-8---------------------------------------|
A|--8----------------------------8-------------------------------------------| 1x
E|---------------------------------------------------------------------------|

Guitar Two:
e|---------------------------------------------------------------------------|
B|---------------------------------------------------------------------------|
G|---------------------------------------------------------------------------|
D|---------------------------------------------------------------------------|
A|--10-10-10-10-10-10-10-10-6-6-6-6-6-6-6-6----------------------------------| 1x
E|---------------------------------------------------------------------------|

e|---------------------------------------------------------------------------|
B|---------------------------------------------------------------------------|
G|---------------------------------------------------------------------------|
D|---------------------------------------------------------------------------|
A|--10-10-10-10-10-10-10-10-6-6-6-6-8-8-8-8----------------------------------| 1x
E|---------------------------------------------------------------------------|

Guitar One:
e|---------------------------------------------------------------------------|
B|---------------------------------------------------------------------------|
G|---------------------------------------------------------------------------|
D|---------------------------------------------------------------------------|
A|--10-10--8-6---8-8--6-5---10-10--8-6---8-8--6-5-6-8-10---------------------| 2x
E|---------------------------------------------------------------------------|

Guitar Two:
e|---------------------------------------------------------------------------|
B|---------------------------------------------------------------------------|
G|---------------------------------------------------------------------------|
D|---------------------------------------------------------------------------|
A|---------------------------------------------------------------------------| 2x
E|---------------------------------------------------------------------------|            
Submit corrections


        Glow  lessons Hard to play? Try these video lessons and learn fast Glow  lessons
        
↑ Back to top | Tablatures and chords for acoustic guitar and electric guitar, ukulele, drums are parodies/interpretations of the original songs. You may use it for private study, scholarship, research or language learning purposes only