Home » P » Pop Evil »

Pop Evil - Til Kingdom Come Tabs

Artists:  A B C D E F G H I J K L M N O P Q R S T U V W X Y Z # 

Til Kingdom Come Tabs

(ver. 1) Click to play this song!
Pop Evil
[Intro]

e|-----------------------------------------------------------------------------|
B|?-----------------------------4-----------------------2----------------------|
G|----------3------------------------------------------------------------------|
D|----4---4---4---4-------3---3---3----3----------3---3---3---3----------------|
A|?-6---6-------6-------4---4-------4-----------1---1-------1------------------|
E|-----------------------------------------------------------------------------|


e|-----------------2-----------------------------------------------------|
B|----------------------------------------------------------------------?| repeat 10x
G|-----------------------------------------------------------------------|
D|----------1---1----1---1\----------------------------------------------|
A|--------2---2--------2------------------------------------------------?|
E|-----------------------------------------------------------------------|

         Repeat this throughout the intro, verses and outro.
            
Submit corrections

↑ Back to top | Tablatures and chords for acoustic guitar and electric guitar, ukulele, drums are parodies/interpretations of the original songs. You may use it for private study, scholarship, research or language learning purposes only