» » »

Pop Evil - Ghost Of Muskegon Tabs

Artists:  A B C D E F G H I J K L M N O P Q R S T U V W X Y Z # 

Ghost Of Muskegon Tabs

(ver. 1) Click to play this song!
Pop Evil
 Rating:
4.3/5 (19 votes)

 Ghost Of Muskegon  lessons Tabs too difficult? Try these video lessons and learn fast
 
                [Intro]

Guitar I
e|----6------------------6-----10-------------11----11-10----10----10-------10-----|
B|-------8------------------8--------------------11-------11----11----11-10----10--|
G|----------7----------------------------------------------------------------------|
D|---------------------------------------------------------------------------------|
A|---------------------------------------------------------------------------------|
D|---------------------------------------------------------------------------------|

Guitar II
e|---------------------------------------------------------------------------------|
B|---------------------------------------------------------------------------------|
G|---------------------------------------------------------------------------------|
D|---------------------------------------------------------------------------------|
A|---------------------------------------------------------------------------------|
D|---------------------------------------------------------------------------------|

Guitar I
e|----6------------------6-----10-------------11----11-10----10----10-------10-----|
B|-------8------------------8--------------------11-------11----11----11-10----10--|
G|----------7----------------------------------------------------------------------|
D|---------------------------------------------------------------------------------|
A|---------------------------------------------------------------------------------|
D|---------------------------------------------------------------------------------|

Guitar II
e|---------------------------------------------------------------------------------|
B|---------------------------------------------------------------------------------|
G|---------------------------------------------------------------------------------|
D|---------------------------------------------------------------------------------|
A|------------/5--1---------------------5-----6-----6--5-----5-----5--------5------|
D|-/5----------------5--0----------5h8-----8-----8--------8-----8-----8--7-----7---|


[Verse]

Guitar I
e|----6------------------6-----10-------------11----11-10----10----10-------10-----|
B|-------8------------------8--------------------11-------11----11----11-10----10--|
G|----------7----------------------------------------------------------------------|
D|---------------------------------------------------------------------------------|
A|---------------------------------------------------------------------------------|
D|---------------------------------------------------------------------------------|

Guitar II
e|---------------------------------------------------------------------------------|
B|---------------------------------------------------------------------------------|
G|---------------------------------------------------------------------------------|
D|---------------------------------------------------------------------------------|
A|------------/5--1---------------------5-----6-----6--5-----5-----5--------5------|
D|-/5----------------5--0----------5h8-----8-----8--------8-----8-----8--7-----7---|

Guitar I
e|----6------------------6-----10-------------11----11-10----10----10-------10-----|
B|-------8------------------8--------------------11-------11----11----11-10----10--|
G|----------7----------------------------------------------------------------------|
D|---------------------------------------------------------------------------------|
A|---------------------------------------------------------------------------------|
D|---------------------------------------------------------------------------------|

Guitar II
e|---------------------------------------------------------------------------------|
B|---------------------------------------------------------------------------------|
G|---------------------------------------------------------------------------------|
D|---------------------------------------------------------------------------------|
A|------------/5--1---------------------5-----6-----6--5-----5-----5--------5------|
D|-/5----------------5--0----------5h8-----8-----8--------8-----8-----8--7-----7---|

Guitar I
e|----6------------------6-----10-------------11----11-10----10----10-------10-----|
B|-------8------------------8--------------------11-------11----11----11-10----10--|
G|----------7----------------------------------------------------------------------|
D|---------------------------------------------------------------------------------|
A|---------------------------------------------------------------------------------|
D|---------------------------------------------------------------------------------|

Guitar II
e|---------------------------------------------------------------------------------|
B|---------------------------------------------------------------------------------|
G|---------------------------------------------------------------------------------|
D|---------------------------------------------------------------------------------|
A|------------/5--1---------------------5-----6-----6--5-----5-----5--------5------|
D|-/5----------------5--0----------5h8-----8-----8--------8-----8-----8--7-----7---|

Guitar I
e|----6------------------6-----10-------------11----11-10----10----10-------10-----|
B|-------8------------------8--------------------11-------11----11----11-10----10--|
G|----------7----------------------------------------------------------------------|
D|---------------------------------------------------------------------------------|
A|---------------------------------------------------------------------------------|
D|---------------------------------------------------------------------------------|


Guitar II
e|---------------------------------------------------------------------------------|
B|---------------------------------------------------------------------------------|
G|---------------------------------------------------------------------------------|
D|---------------------------------------------------------------------------------|
A|------------/5--1---------------------5-----6-----6--5-----5-----5--------5------|
D|-/5----------------5--0----------5h8-----8-----8--------8-----8-----8--7-----7---|


[Chorus]

Guitar I
e|--------------------------------------------------------------------------------------------------|
B|--------------------------------------------------------------------------------------------------|
G|--------------------------------------------------------------------------------------------------|
D|--------------------------------------------------------------------------------------------------|
A|--------------------------------------------------------------------------------------------------|
D|--------------------------------------------------------------------------------------------------|

Guitar II
e|--------------------------------------------------------------------------------------------------|
B|--------------------------------------------------------------------------------------------------|
G|--------------------------------------------------------------------------------------------------|
D|--1--1--1--1--1--1--1--1--5--5--5--5--5--5--5--5--5--5--5--5--5--5--5--5--3--3--3--3--3--3--3--3--|
A|--1--1--1--1--1--1--1--1--3--3--3--3--3--3--3--3--5--5--5--5--5--5--5--5--3--3--3--3--3--3--3--3--|
D|--1--1--1--1--1--1--1--1--3--3--3--3--3--3--3--3--5--5--5--5--5--5--5--5--3--3--3--3--3--3--3--3--|

Guitar I
e|--------------------------------------------------------------------------------------------------|
B|--------------------------------------------------------------------------------------------------|
G|--------------------------------------------------------------------------------------------------|
D|--------------------------------------------------------------------------------------------------|
A|--------------------------------------------------------------------------------------------------|
D|--------------------------------------------------------------------------------------------------|

Guitar II
e|--------------------------------------------------------------------------------------------------|
B|--------------------------------------------------------------------------------------------------|
G|--------------------------------------------------------------------------------------------------|
D|--1--1--1--1--1--1--1--1--5--5--5--5--5--5--5--5--5--5--5--5--5--5--5--5--3--3--3--3--3--3--3--3--|
A|--1--1--1--1--1--1--1--1--3--3--3--3--3--3--3--3--5--5--5--5--5--5--5--5--3--3--3--3--3--3--3--3--|
D|--1--1--1--1--1--1--1--1--3--3--3--3--3--3--3--3--5--5--5--5--5--5--5--5--3--3--3--3--3--3--3--3--|

Guitar I
e|--------------------------------------------------|
B|--------------------------------------------------|
G|--------------------------------------------------|
D|--------------------------------------------------|
A|--------------------------------------------------|
D|--------------------------------------------------|

Guitar II
e|--------------------------------------------------|
B|--------------------------------------------------|
G|--------------------------------------------------|
D|--1--1--1--1--1--1--1--1--5--5--5--5--5--5--5--5--|
A|--1--1--1--1--1--1--1--1--3--3--3--3--3--3--3--3--|
D|--1--1--1--1--1--1--1--1--3--3--3--3--3--3--3--3--|


[Verse]

Guitar I
e|----6------------------6-----10-------------11----11-10----10----10-------10-----|
B|-------8------------------8--------------------11-------11----11----11-10----10--|
G|----------7----------------------------------------------------------------------|
D|---------------------------------------------------------------------------------|
A|---------------------------------------------------------------------------------|
D|---------------------------------------------------------------------------------|

Guitar II
e|---------------------------------------------------------------------------------|
B|---------------------------------------------------------------------------------|
G|---------------------------------------------------------------------------------|
D|---------------------------------------------------------------------------------|
A|------------/5--1---------------------5-----6-----6--5-----5-----5--------5------|
D|-/5----------------5--0----------5h8-----8-----8--------8-----8-----8--7-----7---|

Guitar I
e|----6------------------6-----10-------------11----11-10----10----10-------10-----|
B|-------8------------------8--------------------11-------11----11----11-10----10--|
G|----------7----------------------------------------------------------------------|
D|---------------------------------------------------------------------------------|
A|---------------------------------------------------------------------------------|
D|---------------------------------------------------------------------------------|

Guitar II
e|---------------------------------------------------------------------------------|
B|---------------------------------------------------------------------------------|
G|---------------------------------------------------------------------------------|
D|---------------------------------------------------------------------------------|
A|------------/5--1---------------------5-----6-----6--5-----5-----5--------5------|
D|-/5----------------5--0----------5h8-----8-----8--------8-----8-----8--7-----7---|

Guitar I
e|----6------------------6-----10-------------11----11-10----10----10-------10-----|
B|-------8------------------8--------------------11-------11----11----11-10----10--|
G|----------7----------------------------------------------------------------------|
D|---------------------------------------------------------------------------------|
A|---------------------------------------------------------------------------------|
D|---------------------------------------------------------------------------------|

Guitar II
e|---------------------------------------------------------------------------------|
B|---------------------------------------------------------------------------------|
G|---------------------------------------------------------------------------------|
D|---------------------------------------------------------------------------------|
A|------------/5--1---------------------5-----6-----6--5-----5-----5--------5------|
D|-/5----------------5--0----------5h8-----8-----8--------8-----8-----8--7-----7---|

Guitar I
e|----6------------------6-----10-------------11----11-10----10----10-------10-----|
B|-------8------------------8--------------------11-------11----11----11-10----10--|
G|----------7----------------------------------------------------------------------|
D|---------------------------------------------------------------------------------|
A|---------------------------------------------------------------------------------|
D|---------------------------------------------------------------------------------|

Guitar II
e|---------------------------------------------------------------------------------|
B|---------------------------------------------------------------------------------|
G|---------------------------------------------------------------------------------|
D|---------------------------------------------------------------------------------|
A|------------/5--1---------------------5-----6-----6--5-----5-----5--------5------|
D|-/5----------------5--0----------5h8-----8-----8--------8-----8-----8--7-----7---|


[Chorus]

Guitar I
e|--------------------------------------------------------------------------------------------------|
B|--------------------------------------------------------------------------------------------------|
G|--------------------------------------------------------------------------------------------------|
D|--------------------------------------------------------------------------------------------------|
A|--------------------------------------------------------------------------------------------------|
D|--------------------------------------------------------------------------------------------------|

Guitar II
e|--------------------------------------------------------------------------------------------------|
B|--------------------------------------------------------------------------------------------------|
G|--------------------------------------------------------------------------------------------------|
D|--1--1--1--1--1--1--1--1--5--5--5--5--5--5--5--5--5--5--5--5--5--5--5--5--3--3--3--3--3--3--3--3--|
A|--1--1--1--1--1--1--1--1--3--3--3--3--3--3--3--3--5--5--5--5--5--5--5--5--3--3--3--3--3--3--3--3--|
D|--1--1--1--1--1--1--1--1--3--3--3--3--3--3--3--3--5--5--5--5--5--5--5--5--3--3--3--3--3--3--3--3--|

Guitar I
e|--------------------------------------------------------------------------------------------------|
B|--------------------------------------------------------------------------------------------------|
G|--------------------------------------------------------------------------------------------------|
D|--------------------------------------------------------------------------------------------------|
A|--------------------------------------------------------------------------------------------------|
D|--------------------------------------------------------------------------------------------------|

Guitar II
e|--------------------------------------------------------------------------------------------------|
B|--------------------------------------------------------------------------------------------------|
G|--------------------------------------------------------------------------------------------------|
D|--1--1--1--1--1--1--1--1--5--5--5--5--5--5--5--5--5--5--5--5--5--5--5--5--3--3--3--3--3--3--3--3--|
A|--1--1--1--1--1--1--1--1--3--3--3--3--3--3--3--3--5--5--5--5--5--5--5--5--3--3--3--3--3--3--3--3--|
D|--1--1--1--1--1--1--1--1--3--3--3--3--3--3--3--3--5--5--5--5--5--5--5--5--3--3--3--3--3--3--3--3--|

Guitar I
e|--------------------------------------------------|
B|--------------------------------------------------|
G|--------------------------------------------------|
D|--------------------------------------------------|
A|--------------------------------------------------|
D|--------------------------------------------------|

Guitar II
e|--------------------------------------------------|
B|--------------------------------------------------|
G|--------------------------------------------------|
D|--1--1--1--1--1--1--1--1--5--5--5--5--5--5--5--5--|
A|--1--1--1--1--1--1--1--1--3--3--3--3--3--3--3--3--|
D|--1--1--1--1--1--1--1--1--3--3--3--3--3--3--3--3--|


[Bridge]

Guitar I
e|---------------------------------------------------------------------------------------------------------|
B|---------------------------------------------------------------------------------------------------------|
G|---------------------------------------------------------------------------------------------------------|
D|---------------------------------------------------------------------------------------------------------|
A|---------------------------------------------------------------------------------------------------------|
D|---------------------------------------------------------------------------------------------------------|

Guitar II
e|---------------------------------------------------------------------------------------------------------|
B|---------------------------------------------------------------------------------------------------------|
G|---------------------------------------------------------------------------------------------------------|
D|--5-----5/8--7-----7/10--8-----8/12--10-----10/12--5-----5/8--7-----7/10--8-----8/12------10------10/12--|
A|---------------------------------------------------------------------------------------------------------|
D|---------------------------------------------------------------------------------------------------------|


[Instrumental]

Guitar I
e|--------------------------------------------------------------------------------------------------|
B|--------------------------------------------------------------------------------------------------|
G|--------------------------------------------------------------------------------------------------|
D|--------------------------------------------------------------------------------------------------|
A|--------------------------------------------------------------------------------------------------|
D|--------------------------------------------------------------------------------------------------|

Guitar II (CLEAN)
e|--------------------------------------------------------------------------------------------------|
B|--------------------------------------------------------------------------------------------------|
G|--------0--------0--------------0--------0--------------0--------0--------------0--------0--------|
D|-----1--------1--------------1--------1-----1--------------------------------3--------3-----3-----|
A|--------------------------3--------3-----------3-----6--------6-----6-----------------------------|
D|--1--------1--------1--0--------------------------5--------5-----------5--3--------3-----------3--|

Guitar I
e|--------------------------------------------------------------------------------------------------|
B|--------------------------------------------------------------------------------------------------|
G|--------------------------------------------------------------------------------------------------|
D|--------------------------------------------------------------------------------------------------|
A|--------------------------------------------------------------------------------------------------|
D|--------------------------------------------------------------------------------------------------|

Guitar II (CLEAN)
e|--------------------------------------------------------------------------------------------------|
B|--------------------------------------------------------------------------------------------------|
G|--------0--------0--------------0--------0--------------0--------0--------------0--------0--------|
D|-----1--------1--------------1--------1-----1--------------------------------3--------3-----3-----|
A|--------------------------3--------3-----------3-----6--------6-----6-----------------------------|
D|--1--------1--------1--0--------------------------5--------5-----------5--3--------3-----------3--|


[Chorus]

Guitar I
e|--------------------------------------------------------------------------------------------------|
B|--------------------------------------------------------------------------------------------------|
G|--------------------------------------------------------------------------------------------------|
D|--------------------------------------------------------------------------------------------------|
A|--------------------------------------------------------------------------------------------------|
D|--------------------------------------------------------------------------------------------------|

Guitar II
e|--------------------------------------------------------------------------------------------------|
B|--------------------------------------------------------------------------------------------------|
G|--------------------------------------------------------------------------------------------------|
D|--1--1--1--1--1--1--1--1--5--5--5--5--5--5--5--5--5--5--5--5--5--5--5--5--3--3--3--3--3--3--3--3--|
A|--1--1--1--1--1--1--1--1--3--3--3--3--3--3--3--3--5--5--5--5--5--5--5--5--3--3--3--3--3--3--3--3--|
D|--1--1--1--1--1--1--1--1--3--3--3--3--3--3--3--3--5--5--5--5--5--5--5--5--3--3--3--3--3--3--3--3--|


Guitar I
e|--------------------------------------------------------------------------------------------------|
B|--------------------------------------------------------------------------------------------------|
G|--------------------------------------------------------------------------------------------------|
D|--------------------------------------------------------------------------------------------------|
A|--------------------------------------------------------------------------------------------------|
D|--------------------------------------------------------------------------------------------------|

Guitar II
e|--------------------------------------------------------------------------------------------------|
B|--------------------------------------------------------------------------------------------------|
G|--------------------------------------------------------------------------------------------------|
D|--1--1--1--1--1--1--1--1--5--5--5--5--5--5--5--5--5--5--5--5--5--5--5--5--3--3--3--3--3--3--3--3--|
A|--1--1--1--1--1--1--1--1--3--3--3--3--3--3--3--3--5--5--5--5--5--5--5--5--3--3--3--3--3--3--3--3--|
D|--1--1--1--1--1--1--1--1--3--3--3--3--3--3--3--3--5--5--5--5--5--5--5--5--3--3--3--3--3--3--3--3--|

Guitar I
e|--------------------------------------------------------------------------------------------------|
B|--------------------------------------------------------------------------------------------------|
G|--------------------------------------------------------------------------------------------------|
D|--------------------------------------------------------------------------------------------------|
A|--------------------------------------------------------------------------------------------------|
D|--------------------------------------------------------------------------------------------------|

Guitar II
e|--------------------------------------------------------------------------------------------------|
B|--------------------------------------------------------------------------------------------------|
G|--------------------------------------------------------------------------------------------------|
D|--1--1--1--1--1--1--1--1--5--5--5--5--5--5--5--5--5--5--5--5--5--5--5--5--3--3--3--3--3--3--3--3--|
A|--1--1--1--1--1--1--1--1--3--3--3--3--3--3--3--3--5--5--5--5--5--5--5--5--3--3--3--3--3--3--3--3--|
D|--1--1--1--1--1--1--1--1--3--3--3--3--3--3--3--3--5--5--5--5--5--5--5--5--3--3--3--3--3--3--3--3--|

Guitar I
e|--------------------------------------------------------------------------------------------------|
B|--------------------------------------------------------------------------------------------------|
G|--------------------------------------------------------------------------------------------------|
D|--------------------------------------------------------------------------------------------------|
A|--------------------------------------------------------------------------------------------------|
D|--------------------------------------------------------------------------------------------------|

Guitar II
e|--------------------------------------------------------------------------------------------------|
B|--------------------------------------------------------------------------------------------------|
G|--------------------------------------------------------------------------------------------------|
D|--1--1--1--1--1--1--1--1--5--5--5--5--5--5--5--5--5--5--5--5--5--5--5--5--3--3--3--3--3--3--3--3--|
A|--1--1--1--1--1--1--1--1--3--3--3--3--3--3--3--3--5--5--5--5--5--5--5--5--3--3--3--3--3--3--3--3--|
D|--1--1--1--1--1--1--1--1--3--3--3--3--3--3--3--3--5--5--5--5--5--5--5--5--3--3--3--3--3--3--3--3--|


Guitar I
e|--------------------------------------------------|
B|--------------------------------------------------|
G|--------------------------------------------------|
D|--------------------------------------------------|
A|--------------------------------------------------|
D|--------------------------------------------------|

Guitar II
e|--------------------------------------------------|
B|--------------------------------------------------|
G|--------------------------------------------------|
D|--1--1--1--1--1--1--1--1--5--5--5--5--5--5--5--5--|
A|--1--1--1--1--1--1--1--1--3--3--3--3--3--3--3--3--|
D|--1--1--1--1--1--1--1--1--3--3--3--3--3--3--3--3--|


[Outro]

Guitar I
e|----6------------------6-----10-------------11----11-10----10----10-------10-----|
B|-------8------------------8--------------------11-------11----11----11-10----10--|
G|----------7----------------------------------------------------------------------|
D|---------------------------------------------------------------------------------|
A|---------------------------------------------------------------------------------|
D|---------------------------------------------------------------------------------|


Guitar II
e|---------------------------------------------------------------------------------|
B|---------------------------------------------------------------------------------|
G|---------------------------------------------------------------------------------|
D|---------------------------------------------------------------------------------|
A|------------/5--1---------------------5-----6-----6--5-----5-----5--------5------|
D|-/5----------------5--0----------5h8-----8-----8--------8-----8-----8--7-----7---|            
Submit corrections


        Ghost Of Muskegon  lessons Hard to play? Try these video lessons and learn fast Ghost Of Muskegon  lessons
        
↑ Back to top | Tablatures and chords for acoustic guitar and electric guitar, ukulele, drums are parodies/interpretations of the original songs. You may use it for private study, scholarship, research or language learning purposes only