» » »

Pop Evil - Footsteps Tabs

Artists:  A B C D E F G H I J K L M N O P Q R S T U V W X Y Z # 

Footsteps Tabs

(ver. 1) Click to play this song!
Pop Evil
 Rating:
4.3/5 (12 votes)

 Footsteps  lessons Tabs too difficult? Try these video lessons and learn fast
 
                [Intro]

 Guitar 1 (with heavy delay)
 0:00 - 1:12
D||--------------------||          ||--------------------||          ||--------------------||
A||----0---0---0---0---||          ||----0---0---0---0---||          ||----0---0---0-------||
F||----9---5---6---7---||  <-2x    ||----9---7---6---5---||   <-4x   ||----9---7---6-------||
C||----0---0---0---0---||          ||----0---0---0---0---||          ||----0---0---0-------||
G||--------------------||          ||--------------------||          ||--------------------|| 
D||--------------------||          ||--------------------||          ||--------------------||

 Guitar 2/Bass
 0:41 - 1:12
D||--------------------------------------------------------||       ||-----------------------------------||
A||--------------------------------------------------------||       ||-----------------------------------||
F||--------------------------------------------------------||       ||-----------------------------------||
C||--------------------------------------------------------|| <-2x  ||-----------------------------------||
G||--------------------------------------------------------||       ||-----------------------------------||
D||----0-0-0-0---0/3-3-3-3---3/5-5-5-5---5/88-8-8-8---8\---||       ||---0-0-0-0---0/3-3-3-3---3/5-5-5-5-||


[Pre-Chorus]

 Guitar 1/2
 1:12 - 1:30
D||--------------------------------------||           ||------------------------||
A||--------------------------------------||           ||------------------------||
F||----9-9-9-5-5-5-5-5-------7-7-7-7-7---||           ||----9-9-9-5-5-5-5-5-----||
C||----9-9-9-5-5-5-5-5-5-5-5-7-7-7-7-7---||    <-3x   ||----9-9-9-5-5-5-5-5-----||
G||----7-7-7-3-3-3-3-3-5-5-5-5-5-5-5-5---||           ||----7-7-7-3-3-3-3-3-----||
D||--------------------3-3-3-------------||           ||------------------------||


[Chorus]

 Guitar 1
 1:32 - 1:51
D||--------------------------------------||           ||------------------------||
A||--------------------------------------||           ||------------------------||
F||----9-9-9-5-5-5-5-5-------7-7-7-7-7---||           ||----9-9-9-5-5-5-5-5-----||
C||----9-9-9-5-5-5-5-5-5-5-5-7-7-7-7-7---||    <-3x   ||----9-9-9-5-5-5-5-5-----||
G||----7-7-7-3-3-3-3-3-5-5-5-5-5-5-5-5---||           ||----7-7-7-3-3-3-3-3-----||
D||--------------------3-3-3-------------||           ||------------------------||
Guitar 2
1:32 - 1:51
||-----------------------------------------||           ||-------------------------||
||-----------------------------------------||           ||-------------------------||
||-----------5-5-5-5-5---------7-7-7-7-7---||           ||-----------5-5-5-5-5-----||
||----2-2-2--5-5-5-5-5--5-5-5--7-7-7-7-7---||    <-3x   ||----2-2-2--5-5-5-5-5-----||
||----2-2-2--3-3-3-3-3--5-5-5--5-5-5-5-5---||           ||----2-2-2--3-3-3-3-3-----||
||----0-0-0-------------3-3-3--------------||           ||----0-0-0----------------||


[Verse]

 Guitar 1 
 1:54 - 2:15
D||--------------------||            
A||----0---0---0---0---||            
F||----9---7---6---5---||   <-2x  
C||----0---0---0---0---||         
G||--------------------||      
D||--------------------||        

 Guitar 2
 1:54 - 2:15
D||--------------------------------------------------------||             
A||--------------------------------------------------------||             
F||--------------------------------------------------------||             
C||--------------------------------------------------------||   <-2x  
G||--------------------------------------------------------||             
D||----0-0-0-0---0/3-3-3-3---3/5-5-5-5---5/88-8-8-8---8\---||             


[Chorus]

 Guitar 1
 2:15 - 2:56
D||--------------------------------------||             
A||--------------------------------------||             
F||----9-9-9-5-5-5-5-5-------7-7-7-7-7---||              
C||----9-9-9-5-5-5-5-5-5-5-5-7-7-7-7-7---||    <-8x   
G||----7-7-7-3-3-3-3-3-5-5-5-5-5-5-5-5---||              
D||--------------------3-3-3-------------||              

 Guitar 2
 2:15 - 2:56
D||-----------------------------------------||             
A||-----------------------------------------||            
F||-----------5-5-5-5-5---------7-7-7-7-7---||              
C||----2-2-2--5-5-5-5-5--5-5-5--7-7-7-7-7---||    <-8x   
G||----2-2-2--3-3-3-3-3--5-5-5--5-5-5-5-5---||              
D||----0-0-0-------------3-3-3--------------||              


[Interlude]

 Guitar 2
 2:56-3:15
D||-----------------------------------------||           ||-------------------------||
A||-----------------------------------------||           ||-------------------------||
F||-----------5-5-5-5-5---------7-7-7-7-7---||           ||-----------5-5-5-5-5-----||
C||----2-2-2--5-5-5-5-5--5-5-5--7-7-7-7-7---||    <-3x   ||----2-2-2--5-5-5-5-5-----||
G||----2-2-2--3-3-3-3-3--5-5-5--5-5-5-5-5---||           ||----2-2-2--3-3-3-3-3-----||
D||----0-0-0-------------3-3-3--------------||           ||----0-0-0----------------||
      * * *  * * * * *  * * *  * * * * *                      * * *  * * * * *


[Chorus]

 Guitar 1
 3:18 - 3:59
D||--------------------------------------||             
A||--------------------------------------||             
F||----9-9-9-5-5-5-5-5-------7-7-7-7-7---||              
C||----9-9-9-5-5-5-5-5-5-5-5-7-7-7-7-7---||    <-8x   
G||----7-7-7-3-3-3-3-3-5-5-5-5-5-5-5-5---||              
D||--------------------3-3-3-------------||              

 Guitar 2
 3:18 - 3:59
D||-----------------------------------------||             
A||-----------------------------------------||            
F||-----------5-5-5-5-5---------7-7-7-7-7---||              
C||----2-2-2--5-5-5-5-5--5-5-5--7-7-7-7-7---||    <-8x   
G||----2-2-2--3-3-3-3-3--5-5-5--5-5-5-5-5---||              
D||----0-0-0-------------3-3-3--------------||             


[Outro]

 Guitar 1
 4:00 - 4:16
D||-----------------------------------------------------------||             
A||-----------------------------------------------------------||            
F||-------2-----2-------2--------2------0-2-----2----2--------||             
C||---2------------2----------0-----0-2-----------------0-----||       
G||----------3-------------3----------------3-----3-------0---||             
D||-------------------3-----------------------------3---------||            
Submit corrections


        Footsteps  lessons Hard to play? Try these video lessons and learn fast Footsteps  lessons
        
↑ Back to top | Tablatures and chords for acoustic guitar and electric guitar, ukulele, drums are parodies/interpretations of the original songs. You may use it for private study, scholarship, research or language learning purposes only