» » »

Popeda - Matkalla Alabamaan Tabs

Artists:  A B C D E F G H I J K L M N O P Q R S T U V W X Y Z # 

Matkalla Alabamaan Tabs

(ver. 3) Click to play this song!
Popeda
 Rating:
4/5 (4 votes)

 Matkalla Alabamaan lessons Tabs too difficult? Try these video lessons and learn fast
 
                -----------------------------------------------------------------------------
                          Matkalla Alabamaan - Popeda
-----------------------------------------------------------------------------

Tuning:standard

remember to vote! this is my first tab but it's good.... i think..

intro
e|------------------------------------------------------------------------|
B|------------------------------------------------------------------------|
G|------------------------------------------------------------------------|
D|------------------------------------------------------------------------|X2
A|--------------00-22-33-44---------------00-22-33-44---------------------|
E|-00-22-33-44---------------00-22-33-44----------------------------------|

second intro
e|--------------------------------------------------------------------------|
B|--------------------------------------------------------------------------|
G|-11-11--11-9----9---------------7---11-11-11--9----9--11------------------|
D|-------------12---12------7--9------------------12------------------------|
A|--------------------------------------------------------------------------|
E|--------------------------------------------------------------------------|

varse
X2
e|--------------------------------------------------------------------------|
B|--------------------------------------------------------------------------|
G|--------------------------------------------------------------------------|
D|7777777777777777--555555555555555--777777777777777------------------------|
A|5555555555555555--333333333333333--555555555555555------------00-22-33-44-|
E|---------------------------------------------------00-22-33-44------------|

chorus
X3________________________
e|-----------------------|--------------------------------------------------|
B|-----------------------|--------------------------------------------------|
G|---------------------4-|--------------------------------------------------|
D|---3-----7-----4-----2-|--------------------------------------------------|
A|---5-----5-----2-----2-|--------------00-22-33-44-------------00-22-33-44-|
E|---5-----5-----2-------|--00-22-33-44-------------00-22-33-44-------------|
end chorus
--------------------------------------------------|
--------------------------------------------------|
-11-11-11-9----9-----------7---11-11-11-9----9-11-|
------------12---12----7-9----------------12------|
--------------------------------------------------|
--------------------------------------------------|

solo
-55555555---5------------------------------------------------------------|
-55555555----7-5---------------------------------------------------------|
-----------------7----5--7-77--5----7-5---5-------7-9--------------------|
--------------------5------------5------5--------9-----------------------|
-------------------------------------------------------------------------|
-------------------------------------------------------------------------|

------------------------------------------------------------------------|
-10-10--7-7-----10-10--7-7----------------------------------------------|
---------9--------------9---------------------------1414-1616-1717-1818-|
------------99-------------99---1414-1616-1717-1818---------------------|
------------------------------------------------------------------------|
------------------------------------------------------------------------|

chorus X2
            
Submit corrections


        Matkalla Alabamaan lessons Hard to play? Try these video lessons and learn fast Matkalla Alabamaan lessons
        
↑ Back to top | Tablatures and chords for acoustic guitar and electric guitar, ukulele, drums are parodies/interpretations of the original songs. You may use it for private study, scholarship, research or language learning purposes only