Home » P » Polvo »

Polvo - Monoloth Tabs

Artists:  A B C D E F G H I J K L M N O P Q R S T U V W X Y Z # 

Monoloth Tabs

(ver. 1) Click to play this song!
Polvo
Part 1
------

D#-----------------------------------------------------| 
B------------------------------------------------------| 
B-----2-4s5-4---4-------4-------5----------------------| 
B-3h4--------5--------5---5s7--------------------------| 
G-------------2---2s4---------0------------------------| 
G------------------------------------------------------|





Part 2
------

D#-----------------------------------------------------| 
B------------------------------------------------------|
B-----5-7s9-7------11-----5-7s9-7------12--------------| 
B-5s7---------9s12----5s7---------9s12-----------------|
G------------------------------------------------------| 
G------------------------------------------------------|

Variation

D#-----------------------------------------------------| 
B------------------------------------------------------| 
B-----5------------------------------------------------| 
B-5s7---7s9-7---14~------------------------------------| 
G-------------9s12~------------------------------------| 
G------------------------------------------------------|




Part 3
------

D#------------------------------------------------------| 
B-------------------------------------------------------| 
B-----5-------------------------------------------------| 
B-5s7---7s9---------------------------------------------| 
G-----------7s9-4s7-0-----------------------------------| 
G-------------------0-----------------------------------|
            
Submit corrections

↑ Back to top | Tablatures and chords for acoustic guitar and electric guitar, ukulele, drums are parodies/interpretations of the original songs. You may use it for private study, scholarship, research or language learning purposes only