Home » P » Polvo »

Polvo - Kalgon Tabs

Artists:  A B C D E F G H I J K L M N O P Q R S T U V W X Y Z # 

Kalgon Tabs

(Version #1)
Polvo
Tuning: B-B-E-F#-F#-B
 
 
B|-----------0------------------0----(19)----------0------------------0---(19)--|
B|---------0---0--------------0---0--(19)--------0---0--------------0---0-(19)--|
E|------14--------(19)-----14-----------------14--------(19)-----14-------------|
F#|--/15----------------15---------------15-------------------15----------------|
F#|-----------------------------------------------------------------------------|
B|------------------------------------------------------------------------------|
 
 
B|-----------0------------------0----(19)----------0----------------------------------|
B|---------0---0--------------0---0--(19)--------0---0---7b-7b--------------------7b--|
E|------14--------(19)-----14-----------------14---------7b-7b------14------------7b--|
F#|--/15----------------15-----------------15--------------------15----13-15--12b-----|
F#|---------------------------------------------------------------------------12b-----|
---B|---------------------------------------------------------------------------------|
 
 
B|----------------------------------------------------------|
B|-------------7------------7--7-9p7-9p7-7---------7--7-7b--|
E|---9b-9--7/9----9b-9--7/9----------------9--7/9-----7-7b--|
F#|---------------------------------------------------------|
F#|---------------------------------------------------------|
B|----------------------------------------------------------|
 
 
B|----------------------------------------------------------|
B|-------------7------------7--7-9p7-9p7-7--------7---------|
E|---9b-9--7/9----9b-9--7/9----------------9--7/9----5-12b--|
F#|--------------------------------------------------5-12b--|
F#|---------------------------------------------------------|
B|----------------------------------------------------------|
 
 
B|--------------------------------------------------------|
B|-------------7------------7-----------------------------|
E|---9b-9--7/9----9b-9--7/9----9b-9-----14-----14b--------|
F#|----------------------------------/15---15--15b--------|
F#|----------------------------------/15---15--15b--------|
B|--------------------------------------------------------|
 
 
B|-----------------------------------------------------------------|
B|---7b---------7------------7---7-9------7-----------7-7-9p7-9p7--|
E|---7b-9--7/9----9b-9--7/9----9------7/9---9b-9--7/9--------------|
F#|----------------------------------------------------------------|
F#|----------------------------------------------------------------|
B|-----------------------------------------------------------------|
 
 
B|---7--9-9p7-7--10-9-7-------------------------2/9-9-7-7-9b-9b--14-14-14-14-12-12--|
B|---7--9-9p7-7--10-9-7-------------------------2/9-9-7-7-9b-9b--14-14-14-14-12-12--|
E|---7--7-9p7-7--7--7-7-7b-7b-7b---12-12-11-11--2/9-9-7-7-9b-9b--14-14-14-12-12-12--|
F#|--------------------------------10-10--9--9--------------------------------------|
F#|--------------------------------10-10--9--9--------------------------------------|
B|----------------------------------------------------------------------------------|
 
 
B|---9-9-10-10-9-9-10-10-10-10-10-------5/7-7-7-7b-7b-7\5------------|
B|---9-9-10-10-9-9-10-10-10-10-10-------5/7-7-7-7b-7b-7\5------------|
E|---9-9-10-10-9-9-10-10-10-10-10-------5/7-7-7-7b-7b-7\5--12-11-11--|
F#|--------------------------------7b\---------------------10--9--9--|
F#|--------------------------------7b\---------------------10--9--9--|
B|-------------------------------------------------------------------|
 
 
B|---9-10-10-10-10-10-12-12-12-10-------5-5-7-7-8-8-7-5--|
B|---9-10-10-10-10-10-12-12-12-10-------5-5-7-7-7-7-7-5--|
E|---9-10-10-10-10-10-10-10-10-10--7-7--5-5-7-7-7-7-7-5--|
F#|--------------------------------5-5-------------------|
F#|--------------------------------5-5-------------------|
B|-------------------------------------------------------|
 
 
B|-------------------------------------------------------------------------|
B|-------------------------------------------------------------------------|
E|---12--11-11--11-11--11-11-11--12-12-12--11-11--11-11--11-11-11--12ring--|
F#|--12--11-11--11-11--11-11-11--12-12-12--11-11--11-11--11-11-11--12ring--|
F#|--10---9--9---9--9---9--9--9--10-10-10---9--9---9--9---9--9--9--10ring--|
B|-------------------------------------------------------------------------|
 
 
B|----------------7-9-9--9-9-10-9-7--------------------------7--9-9p7-7--9b--14-14-14-14-12-12--|
B|----------------7-9-9--9-9-10-9-7--------------------------7--9-9p7-7--9b--14-14-14-14-12-12--|
E|----------------7-9-9-10-9-10-9-7-------------12-12-11-11--7--9-9p7-7--9b--14-14-14-12-12-12--|
F#|----------------------------------8-8\2/12\--10-10--9--9-------------------------------------|
F#|--10-----10-----------------------8-8\2/12\--10-10--9--9-------------------------------------|
B|------9-8----8--------------------------------------------------------------------------------|
 
 
B|---9--9--9-9--9--9--9--9--9--9--9--------5/7-7-7-7-7-7-7---------|
B|---9-10-10-9-10-10-10-10-10-10-10--------5/7-8-8-8-8-8-7---------|
E|---9--9--9-9--9--9--9--9--9--9--9--7-7---5/7-7-7-7-7-7-7--12-11--|
F#|----------------------------------5-5--------------------10--9--|
F#|----------------------------------5-5--------------------10--9--|
B|-----------------------------------------------------------------|
 
 
B|---9-10-10-10-10-10-12-/15-15-15-15-------5-5-7-7-8-8-7-5--|
B|---9-10-10-10-10-10-12-/15-15-15-15-------5-5-7-7-8-8-7-5--|
E|---9--9--9--9--9--9--9---------------7-7--5-5-7-7-7-7-7-5--|
F#|------------------------------------5-5-------------------|
F#|------------------------------------5-5-------------------|
B|-----------------------------------------------------------|
 
B|-----------------------------------------------------------------|
B|-----------------------------------------------------------------|
E|---12-11-11--11-11--11-11--12-12-12-11-11--11-11--11-11--12ring--|
F#|--10--9--9---9--9---9--9--10-10-10--9--9---9--9---9--9--10ring--|
F#|--10--9--9---9--9---9--9--10-10-10--9--9---9--9---9--9--10ring--|
B|-----------------------------------------------------------------|
            
Submit corrections

↑ Back to top | Tablatures and chords for acoustic guitar and electric guitar, ukulele, drums are parodies/interpretations of the original songs. You may use it for private study, scholarship, research or language learning purposes only