» » »

Poison The Well - Loved Ones Excerpts From Speeches Of How Great You Were And Never Will Be Again Bass

Artists:  A B C D E F G H I J K L M N O P Q R S T U V W X Y Z # 

Loved Ones Excerpts From Speeches Of How Great You Were And Never Will Be Again Bass

(ver. 1) Click to play this song!
Poison The Well
 Rating:
4.2/5 (5 votes)
                UPDATE: Fixed so that it's in true Drop D tuning. Also fixed the rhythm for the chorus.

(Riff 1)

g|----|----|----|----|----|----|----|----|
d|----|----|----|----|----|----|----|----|
a|----|----|----|----|----|----|----|----|
d|0007|7733|0007|7733|0008|8833|0008|8833| 

(Riff 2)

g|----|----|----|----|----|----|----|----|
d|----|----|----|----|----|----|----|----|
a|----|----|----|----|----|----|----|----|
d|7777|7777|7777|7777|8888|8888|3333|3333| 

(Riff 3)

g|----|----|----|----|----|----|----|----|
d|----|----|----|----|----|----|----|----|
a|----|----|----|----|----|----|----|----|
d|7777|7777|7777|7777|8888|8888|3333|3---|

(Riff 4) 

g|----|----|----|----|----|----|----|----|
d|----|----|----|----|----|----|----|----|
a|----|----|----|----|----|----|----|----|
d|7777|777-|----|----|8888|888-|----|----| 

(Riff 5)

g|----|----|----|----|----|----|----|----|
d|----|----|----|----|----|----|----|----|
a|3333|-33-|0000|-00-|----|----|2222|-22-|
d|----|----|----|----|3333|-33-|----|----| 

(Riff 6)

g|----|----|----|----|----|----|----|----|
d|----|----|----|----|----|----|----|----|
a|3333|-33-|----|----|----|----|2222|-22-|
d|----|----|0000|-00-|3333|-33-|----|----| 

(Riff 7)

g|----|----|----|----|----|----|4444|-44-|
d|----|----|0000|-00-|3333|-33-|----|----|
a|3333|-33-|----|----|----|----|----|----|
d|----|----|----|----|----|----|----|----|         

(Riff 8)

g|----|----|----|----|----|----|----|----|
d|----|----|----|----|----|----|----|----|
a|----|----|----|----|----|----|4444|4---|
d|0007|7733|0007|7733|0008|8833|----|----|

Here's the playlist, riffs played (x1) unless otherwise noted:

Riff 1 (x6)
Riff 2 (x3)
Riff 3 
Break
Riff 4 (x2)
Riff 5 
Riff 6 
Riff 5 
Riff 7 
Riff 1 (x3)
Riff 8 
(Break)
Riff 4 (x2)
Riff 5
Riff 6
Riff 5
Riff 6
Riff 5
Riff 7
(Outro)
Riff 1 (x3)
Riff 8
(End)
            
Submit corrections

↑ Back to top | Tablatures and chords for acoustic guitar and electric guitar, ukulele, drums are parodies/interpretations of the original songs. You may use it for private study, scholarship, research or language learning purposes only