» » »

Pohlmann - Das Gluck Tabs

Artists:  A B C D E F G H I J K L M N O P Q R S T U V W X Y Z # 

Das Gluck Tabs

(ver. 2) Click to play this song!
Pohlmann
 Rating:
4.4/5 (7 votes)

 Das Gluck lessons Tabs too difficult? Try these video lessons and learn fast
 
                Pohlmann. - Das Glück by the_Pete


Stophe:

E--------------------------------------------|
H-----3-3------3-3------3-3------3-3---------|
G-----0-0------0-0------0-0------0-0---------|
D--------------------------------------------|
A----------------------2--------3------------|
E---3--------2-------------------------------|

Bei der 2. Strophe zupft er die Töne nur kurz an und geht dann bei "Weltall..." wieder 
den Akkorden über. Dazu bitte den Song anhören!

Refrain:

2xCadd9 G D
E---0-------x-------3-------------------------|
H---3-------3-------2-------------------------|
G---0-------0-------3-------------------------|
D---2-------0-------0-------------------------|
A---3-------2-------x-------------------------|
E---x-------3-------x-------------------------|

Strophe:
Lass dich ansehen
Und schau zurück
Was auch immer dich bedrückt
Du bist Schöpfung I'm Jetzt und Hier
Und du bist blind vertraue dir

Refrain:
Und das Glück ist immer nur
Ein paar Tränen entfernt
Das Glück ist immer nur
Ein paar Tränen entfernt
Du bist ihnen schon auf der Spur
Wenn die Letzte von dir fällt
Das Glück ist immer nur ein paar Tränen von dir entfernt

Strophe:
Und für den schönsten Regenbogen braucht man immer etwas Regen
Vor der Angst um den Tod steht die Freude am Leben
Und wer geneigt dazu war sich den Gar auszumachen
Der wird am Strand sich noch finden und ins Weltall lachen ins Weltall lachen

Refrain:
Denn das Glück ist immer nur
Ein paar Tränen entfernt
Das Glück ist immer nur
Ein paar Tränen entfernt
Du bist ihnen schon auf der Spur
Wenn die Letzte von dir fällt
Das Glück ist immer nur ein paar Tränen ein paar Tränen von dir entfernt
            
Submit corrections


        Das Gluck lessons Hard to play? Try these video lessons and learn fast Das Gluck lessons
        
↑ Back to top | Tablatures and chords for acoustic guitar and electric guitar, ukulele, drums are parodies/interpretations of the original songs. You may use it for private study, scholarship, research or language learning purposes only