Home » P » Poets Of The Fall »

Poets Of The Fall - No End No Beginning Tabs

Artists:  A B C D E F G H I J K L M N O P Q R S T U V W X Y Z # 

No End No Beginning Tabs

(ver. 2) Click to play this song!
Poets Of The Fall
Tuning: Standard (Capo 2nd fret)

Intro:

e|------0--------0--------0---------0---------0--------0--------0-------0----|
B|----0--------0--------0---0-------0-------0--------0--------0---0-----0----|
G|-14-------13-------12-------------5----14-------13-------12-----------5----|
D|--------------------------------5-----------------------------------5------|
A|------------------------------3------------------------------------0-------|
E|---------------------------------------------------------------------------|

Verse:

e|------0------0------0--------0--------0------0------0-------0--------------|
B|----0------0------0---0------0------0------0------0---0-----1--------------|
G|-14-----13-----12------------5---14-----13-----12---------0----------------|
D|---------------------------5-----------------------------------------------|
A|-------------------------3-------------------------------0-----------------|
E|---------------------------------------------------------------------------|

e|------0------0------0------2--0-------0------0------0-------0--------------|
B|----0------0------0---0----3--0-----0------0------0---0-----1--------------|
G|-14-----13-----12----------------14-----13-----12---------0----------------|
D|---------------------------------------------------------------------------|
A|------------------------3-------------------------------0------------------|
E|---------------------------------------------------------------------------|

Chorus: 

Here are the chords:
Em 022000 , Bm11 X20230 , Cadd9 X32030 , CM13/B X22210
Asus4 X00230 , CM7 X32000 , E7sus4 020200 , Asus 2 X02200


Em                Bm11   Cadd9            Cm13/B
And this is one sacrifice I don't want to make
E7sus4           Em  CM7
If there's no end
                  Bm11                       Cadd9
There can be no beginning, there can be no beginning
                Em   CM7
If there's no end
                      Bm11             Asus2                Cadd9   
It feels like forsaking the dawn, we awaken and still we don't see
                 Em                  Asus4             Cadd9    Bm11  
I am still secretly grateful you're living this moment with me

e|-----------0-------|
B|----3--------------|
G|-------2-----------|
D|-------------------|
A|-2-----------------|
E|-------------------|

Repeat Verse

Chorus 2 has slightly different chords

CM7            Bm11          Cadd9       CM13/B
And that's a predicament if I know anything

Rest is same

  F#M      GM           Asus2    Asus4      Em
              If it's just one life we're given
             Asus2          Asus4           Em  
              If it's just one time you're living

Solo: I haven`t tabbed it out yet
      Repeat chords of Chorus

Interlude:


e|---7---3---5---2---0---3---2---0---2---3---------|
B|----0---0---0---0-------0---0---0---0------------|
G|-----5---4---4---0-------0---0---0---0-----------| x2
D|-------------------------------------------------|
A|---------------------3---------------------------|
E|-0-----------------------------------------------|

e|---5---3---7---3----3---2---0---2---3------------|
B|----0---0---0--------0---0---0---0---------------|
G|-----5---5---5--------0---0---0---0--------------| x2
D|-0-----------------------------------------------|
A|------------------3------------------------------|
E|-------------------------------------------------|

e|---5---3---2----3---2---0------------------------|
B|----0---0--------0---0---------------------------|
G|-----5---5--------0---0--------------------------|
D|-0-----------------------------------------------|
A|--------------3----------------------------------|
E|-------------------------------------------------|


            
Submit corrections

↑ Back to top | Tablatures and chords for acoustic guitar and electric guitar, ukulele, drums are parodies/interpretations of the original songs. You may use it for private study, scholarship, research or language learning purposes only