Home » P » Poets Of The Fall »

Poets Of The Fall - Fragile Tabs

Artists:  A B C D E F G H I J K L M N O P Q R S T U V W X Y Z # 

Fragile Tabs

(ver. 2) Click to play this song!
Poets Of The Fall
Tuning: Standard


Intro:

e|-------7-------7------------7-------------|
B|---5---------5---5------5---------5---5---|
G|-4---4-----4----------4---4-----4---4-----|
D|------------------------------------------|
A|------------------------------------------|
E|--------------------0---------------------|

Verse:

e|---------7--------7------------7------7-------------7------7----|
B|-----5---------5----5------5--------5---4-------5--------5---5--|
G|---4---4----4------------4---4----4-----------4---4----4--------|
D|----------------------------------------------------------------|
A|----------------------------------------------------------------|
E|-0---------------------0-------------------0--------------------|

e|---------7------7------------7------7-------------7------7------------7------7-----|
B|-----5--------5---5------5--------5---5-------5--------5---5------5--------5---5---|
G|---4---4----4----------4---4----4-----------4---4----4----------4---4----4---------|
D|-----------------------------------------------------------------------------------|
A|-4-------------------4-------------------------------------------------------------|
E|------------------------------------------7-------------------7--------------------|

e|---------7-----7------------5------5------------7------7------------7------7-------|
B|-----5---------5--------3--------3---3------5--------5---5------5--------5---4-----|
G|---4---4----4--4------2---2----2----------4---4----4----------4---4----4-----------|
D|--------------------0--------------------------------------------------------------|
A|-0--------------------------------------0-------------------0----------------------|
E|-----------------------------------------------------------------------------------|

e|--4-----7----7/9------|
B|--5-----5-------------|
G|--4-----4-------------|
D|--6-----7-------------|
A|----------------------|
E|----------------------|

Chorus: Chords

e|-0---0--4p0-2p0--0-----|
B|-0---0-----------0-----|
G|-2---4-----------6-----| x2
D|-2---4-----------6-----|
A|-0---0-----------4-----|
E|-----------------------|

e|-0---0---0---0--|
B|-3---0---0---0--|
G|-2---2---4---9--|
D|-0---2---4---9--|
A|-0---0---2---7--|
E|----------------|

Repeat Verse and Chorus then play Bridge

Bridge: Chords

e|-----7--0--0---0---0---0----|
B|--------0--0---0---0---0----|
G|--------9--1---8---6---4----|
D|-9------9--2---7---6---4----|
A|---9----7--2---7---4---2----|
E|-----------0---5------------|            
Submit corrections

↑ Back to top | Tablatures and chords for acoustic guitar and electric guitar, ukulele, drums are parodies/interpretations of the original songs. You may use it for private study, scholarship, research or language learning purposes only