Home » P » Poesie Noire »

Poesie Noire - Largent Est Un Cadeau Bass

Artists:  A B C D E F G H I J K L M N O P Q R S T U V W X Y Z # 

Largent Est Un Cadeau Bass

(ver. 1) Click to play this song!
Poesie Noire
 |1   2   3   4   |1   2   3   4   |1   2   3   4   |1   2   3   4   |
 |G               |D               |Am              |C               |
G|----------------|----------------|----------------|----------------|
D|----------------|------------4-5-|7-----7---7-5-4-|----------2-0---|
A|------------2-3-|5-----5---5-----|----------------|3-----3-------3-|
E|3-----3---3-----|----------------|----------------|----------------|

C              E             F           D
Et je vois les gens pourrir, ces pauvres idiots
C              E             A           G
Et je vois les gens pourrir, ces pauvres idiots


 |1   2   3   4   |1   2   3   4   |1   2   3   4   |1   2   3   4   |
 |C               |E               |F               |D               |
G|----------------|----------------|----------------|----------------|
D|----------------|2---------------|3---------------|0---------------|
A|3---------------|----------------|----------------|----------------|
E|----------------|----------------|----------------|----------------|

 |1   2   3   4   |1   2   3   4   |1   2   3   4   |1   2   3   4   |
 |C               |E               |A               |G               |
G|----------------|----------------|2---------------|0---------------|
D|----------------|2---------------|----------------|----------------|
A|3---------------|----------------|----------------|----------------|
E|----------------|----------------|----------------|----------------|


Interlude:

 |1   2   3   4   |1   2   3   4   |
 |C       D       |C       D       |
G|----------------|----------------|
D|----------------|----------------|
A|333-3-3-5-------|333-3-3-5-------|
E|----------------|----------------|
            
Submit corrections

↑ Back to top | Tablatures and chords for acoustic guitar and electric guitar, ukulele, drums are parodies/interpretations of the original songs. You may use it for private study, scholarship, research or language learning purposes only