» » »

P.O.D. - Say Hello Tabs

Artists:  A B C D E F G H I J K L M N O P Q R S T U V W X Y Z # 

Say Hello Tabs

(ver. 1) Click to play this song!
P.O.D.
 Rating:
4/5 (4 votes)


 Say Hello lessons Tabs too difficult? Try these video lessons and learn fast
 
                Band: P.O.D.

Tuning - Drop D

p - Pull-off
\ - slide down
p.m. - Palm Mute

[Intro]
e|------------------------------------------|
B|------------------------------------------|
G|------------------------------------------|
D|-10-10-10-0-10-10-10-0~--10p0--10-10-10-0-| (x4)
A|--8--8--8-0--8--8--8-0~---8p0---8--8--8-0-|
D|------------------------------------------|


[Pre-Verse]
e|-------------------------------------------|
B|-------------------------------------------|
G|-10-10-10-0-10-10-10--0~--10-0--10-10-10-0-|
D|-10-10-10-0-10-10-10--0~--10-0--10-10-10-0-| (x8)
A|--8--8--8-0--8--8--8--0~---8-0---8--8--8-0-|
D|----------0-----------0~-----0-----------0-|

[Verse]
e|-------------------------------------------|
B|-------------------------------------------|
G|-------------------------------------------|
D|-10-10-10-0-10-10-10-0~--10-0-0-10-10-10-0-| (x8)
A|--8--8--8-0--8--8--8-0~---8-0-0--8--8--8-0-|
D|-------------------------------------------|
p.m -  -  - -  -  -  - -    - - -  -  -  - -

[Pre-chorus]
"I know, that I know, that I know, that this is.."
e|-------------------------------------------|
B|-------------------------------------------|
G|-10-10-10-0-10-10-10--0~--10-0--10-10-10-0-|
D|-10-10-10-0-10-10-10--0~--10-0--10-10-10-0-| (x4)
A|--8--8--8-0--8--8--8--0~---8-0---8--8--8-0-|
D|----------0-----------0~-----0-----------0-|

[Chorus]
"I hate to disappoint you..."                   The forth time (1st Chorus
e|---------------------------------------        -----------|       only)
B|---------------------------------------        -----------|
G|-----------------------10\-------------        -----------|
D|-3-0-3-0------0-0---0--10\------------- (x3)   -3-0-3-0---| (x1)
A|-3-0-3-0------0-0---0---8\-------------        -3-0-3-0---|
D|-3-0-3-0------0-0---0------------------        -3-0-3-0---|
P.M.            - -   -

[Verse] (x8)
[Pre-Chorus] (4)
[Chorus] (x8)

[At end of second Chorus before the Bridge. Not sure what is used, so this is the 
way I know of how it sounds to me]

e|-0~--
B|-0~--
G|-----
D|-----
A|-----
D|-----

[Bridge]

e|-------------|Small|--------------------------0--0------|
B|---------------|P|----------------------------0--0------|
G|---------------|A|--------------------------------------|
D|-5-3-0--0-3-0--|U|--5-3-0--0-3-0-5-7-5-3-0--3-----------| (x5)
A|-5-3-0--0-3-0--|S|--5-3-0--0-3-0-5-7-5-3-0--3-----------|
D|-5-3-0--0-3-0--|E|--5-3-0--0-3-0-5-7-5-3-0--3-----------|

e|----------------|
B|----------------|
G|----------------|
D|-5-3-0-3--------| (x2)
A|-5-3-0-3--------|
D|-5-3-0-3--------|

e|----------------|
B|----------------|
G|----------------|
D|-5-3-0-0--------|
A|-5-3-0-0--------|
D|-5-3-0-0--------|


[Chorus] (x7)

Outro
"Say hello to the bad guy!"
e|----------------|
B|----------------|
G|----------------|
D|-3-0-3-0--------|
A|-3-0-3-0--------|
D|-3-0-3-0--------|

This is my first tab. I tabbed this with only an electric guitar and a small amp, so 
leave comments on this tab and how this it can be better.

Thanks!
            
Submit corrections



        Say Hello lessons Hard to play? Try these video lessons and learn fast Say Hello lessons
        
↑ Back to top | Tablatures and chords for acoustic guitar and electric guitar, ukulele, drums are parodies/interpretations of the original songs. You may use it for private study, scholarship, research or language learning purposes only