Home » P » P.O.D. »

P.O.D. - This Goes Out To You Tabs

Artists:  A B C D E F G H I J K L M N O P Q R S T U V W X Y Z # 

This Goes Out To You Tabs

(ver. 1) Click to play this song!
P.O.D.
Intro:
   v  v ^ v  v ^ v ^  ^ v  v v v ^ v ^ v ^ v ^ v ^  v  ^  v  ^  v   ^
D|---------------------------------------------------------------------------|
A|-----------------10--\9----------------------------------------------------|
F|-9--9-9-9--9-9-9-9--9-9----------------------------------------------------|
C|-----------------------------5-5-5-7-7-7-9-9-9-12-12-12-12-12-12-----------|
G|-7--7-7-7--7-7-7-7--7-7----------------------------------------------------|
D|-------------------------x-x-3-3-3-5-5-5-7-7-7-10-10-10-10-10-10--0--------|
                                                                   (^ This is a pickup note)
   v  v ^ v v ^ v ^ v ^   v ^  v v v v v v v v v v v v  v  v  v  v  v
D|---------------------------------------------------------------------------|
A|----------------10--10-\9-9------------------------------------------------|
F|-9--9-9-9--9-9-9-9-9-9--9-9------------------------------------------------|
C|---------------------------------5-5-5-7-7-7-9-9-9-12-12-12-12-12-12-------|
G|-7--7-7-7--7-7-7-7-7-7--7-7------------------------------------------------|
D|-----------------------------x-x-3-3-3-5-5-5-7-7-7-10-10-10-10-10-10-------|
                                     x x   x x   x x     x  x  x  x  x
                                                                        

Intro Part 2/Chorus: (This intro bit below is the same thing played during the chorus)
(Use same strumming pattern as before)
D|----------------------------------------------------------------------------|
A|*----------------10--10-\9-9------------------------------------------------|
F|--9--9-9-9--9-9-9-9-9-9--9-9------------------------------------------------|
C|----------------------------------5-5-5-7-7-7-9-9-9-12-12-12-12-12-12-------|
G|*-7--7-7-7--7-7-7-7-7-7--7-7------------------------------------------------|
D|------------------------------0-0-3-3-3-5-5-5-7-7-7-10-10-10-10-10-10--0----|

                                                     ^    v  ^  v  ^  v  ^
D|---------------------------------------------------------------------------|
A|----------------10--10-\9-9-----------------------------------------------*|
F|-9--9-9-9--9-9-9-9-9-9--9-9------------------------------------------------|
C|---------------------------------5-5-5-7-7-7-9-9-9-9/12-12-12-12-12-12-----|
G|-7--7-7-7--7-7-7-7-7-7--7-7-----------------------------------------------*|
D|-----------------------------0-0-3-3-3-5-5-5-7-7-7-7/10-10-10-10-10-10--0--| Repeat x2
                                                                     
                                                    
Verses 1 and 2:
    v v v v v ^ v ^ v ^ v ^ v ^ v ^ v v v v v v v v v v  v  v  v  ^  v  ^
D|-----------------------------------------------------------------------------|
A|*----------------------------------------------------------------------------|
F|--9---------9-9-9-9-9-9-9-9-9-9----------------------------------------------|
C|----------------------------------5-5-5-7-7-7-9-9-9-12-12-12-12-12-12-12-----|
G|*-7-7-7-7-7-7-7-7-7-7-7-7-7-7-7----------------------------------------------|
D|--0-0-0-0-0-0-0-0-0-0-0-0-0-0-0-0-3-3-3-5-5-5-7-7-7-10-10-10-10-10-10-10-----|
      x x x x                       x x x x x x x x x  x  x  x

   v v v v v ^ v ^ v ^ v ^ v ^ v ^ v v v v v v v v v v  v  v  v  ^  v  ^                       
D|-----------------------------------------------------------------------------|
A|----------------------------------------------------------------------------*|
F|-9---------9-9-9-9-9-9-9-9-9-9-----------------------------------------------|
C|---------------------------------5-5-5-7-7-7-9-9-9-12-12-12-12-12-12-12------|
G|-7-7-7-7-7-7-7-7-7-7-7-7-7-7-7----------------------------------------------*|
D|-0-0-0-0-0-0-0-0-0-0-0-0-0-0-0-0-3-3-3-5-5-5-7-7-7-10-10-10-10-10-10-10------| Repeat x2
     x x x x                       x x x x x x x x x  x  x  x  x


Bridge:
D|-----------------------------|-----------------------|
A|10\9-----8\7----10\9-----8\7*|-----------------------|
F|-9-9-----7-7-----9-9-----7-7-|-----------------------|
C|-----------------------------|---5-------------------|
G|-7-7-----5-5-----7-7-----5-5*|---5-------------------|
D|-----------------------------|---3-------------------|
     ^Repeat x2            
Submit corrections

↑ Back to top | Tablatures and chords for acoustic guitar and electric guitar, ukulele, drums are parodies/interpretations of the original songs. You may use it for private study, scholarship, research or language learning purposes only