» » »

P Money Ft Vince Harder - Everything Tabs

Artists:  A B C D E F G H I J K L M N O P Q R S T U V W X Y Z # 

Everything Tabs

(ver. 1) Click to play this song!
P Money Ft Vince Harder
 Rating:
4/5 (4 votes)

 Everything  lessons Tabs too difficult? Try these video lessons and learn fast
 
                Tuning: EADGBE

Intro

e|----------------------------------------------------------------------------------|
B|------------------------------------------------------------------------------14--|
G|--13-14-x--13-14-x--13-14-x--13-14-x--13-14-x--13-14-x--14-x-14-x-14-x-14-x-------|
D|----------------------------------------------------------------------------------|
A|----------------------------------------------------------------------------------|
E|----------------------------------------------------------------------------------|

Chorus

e|--------------------------------------------------------------|
B|--------------------------------------------------------------|
G|--13-------13-13h14p13h14--13---------------------------------|
D|--------15----------------------15-13-11-----(repeat lots)----|
A|--------------------------------------------------------------|
E|--------------------------------------------------------------|

Bridge

e|-----------------------------------------------------------------------------|
B|-------------------------------------------------------------------------14--|
G|--13------13------------13---13---------13h14p13h14-(x4)---------------------|
D|-----15------15-(x3)------15---15-(x2)----------=----------------------------|   then back to chorus
A|----------------------------------------------------------15p13\11--(x4)-----|
E|-----------------------------------------------------------------------------|            
Submit corrections


        Everything  lessons Hard to play? Try these video lessons and learn fast Everything  lessons
        
↑ Back to top | Tablatures and chords for acoustic guitar and electric guitar, ukulele, drums are parodies/interpretations of the original songs. You may use it for private study, scholarship, research or language learning purposes only