» » »

Pj Harvey - Yuri G Tabs

Artists:  A B C D E F G H I J K L M N O P Q R S T U V W X Y Z # 

Yuri G Tabs

(ver. 1) Click to play this song!
Pj Harvey
 Rating:
4.4/5 (14 votes)

 Yuri G lessons Tabs too difficult? Try these video lessons and learn fast
 
                [Intro] lightly PM...  
e|---------------------------------------------------------------------------|
B|---------------------------------------------------------------------------|
G|---------------------------------------------------------------------------|
D|---------------------------------------------------------------------------|
A|--12-12-12--11-11-11-11--10-10-10-9-9-9-9--4-4-4-4-4-4-4--4-4-4-4-4-4-4----|
E|--9--9--9---9--9--9--9---7--7--7--7-7-7-7--0-2-2-2-2-2-2--0-2-2-2-2-2-2----|

[Verse]..p.m. 
e|---------------------------------------------------------------------------|
B|---------------------------------------------------------------------------|
G|---------------------------------------------------------------------------|
D|---------------------------------------------------------------------------|
A|--12-12-12-11-11-11-11----10-10-10-9-9-9-9---------------------------------|
E|--9--9--9--9--9--9--9-----7--7--7--7-7-7-7---------------------------------|

e|---------------------------------------------------------------------------|
B|---------------------------------------------------------------------------|
G|---------------------------------------------------------------------------|
D|---4-4-4-4-4-4---7-7-7-7-7-7--4-4-4-4-4-4----------------------------------|
A|---4-4-4-4-4-4---7-7-7-7-7-7--4-4-4-4-4-4----------------------------------|
E|---2-2-2-2-2-2---5-5-5-5-5-5--2-2-2-2-2-2----------------------------------|

[Chorus]
e|---------------------------------------------------------------------------|
B|---------------------------------------------------------------------------|
G|---------------------------------------------------------------------------|
D|-12-12-12-12-12-12-/9-9-9-9--4-4-4-4-4-4--7-7-7-7-7-7--4-4-4-4-------------|
A|-12-12-12-12-12-12-/9-9-9-9--4-4-4-4-4-4--7-7-7-7-7-7--4-4-4-4-------------|
E|-10-10-10-10-10-10-/7-7-7-7--2-2-2-2-2-2--5-5-5-5-5-5--2-2-2-2-------------|
 
..break down..no..p.m. 
e|---------------------------------------------------------------------------|
B|---------------------------------------------------------------------------|
G|---------------------------------------------------------------------------|
D|---------------------------------------------------------------------------|
A|--12-12-12--11-11-11-11--10-10-10-9-9-9-9--4-4-4-4-4-4-4--4-4-4-4-4-4-4----|
E|--9--9--9---9--9--9--9---7--7--7--7-7-7-7--0-2-2-2-2-2-2--0-2-2-2-2-2-2----|

[Outro]
e|---------------------------------------------------------------------------|
B|---------------------------------------------------------------------------|
G|---------------------------------------------------------------------------|
D|-4-------------------------------------------------------------------------|
A|-4-------------------------------------------------------------------------|
E|-2-------------------------------------------------------------------------|

            
Submit corrections


        Yuri G lessons Hard to play? Try these video lessons and learn fast Yuri G lessons
        
↑ Back to top | Tablatures and chords for acoustic guitar and electric guitar, ukulele, drums are parodies/interpretations of the original songs. You may use it for private study, scholarship, research or language learning purposes only