» » »

Pitbull - Options Tabs

Artists:  A B C D E F G H I J K L M N O P Q R S T U V W X Y Z # 

Options Tabs

(ver. 1) Click to play this song!
Pitbull
 Rating:
4.3/5 (12 votes)


 Options  lessons Tabs too difficult? Try these video lessons and learn fast
 
                [Intro]
e|---------------------|
B|---------------------|
G|----4---5---4---5----|
D|--2---2---2---2------|
A|---------------------|
E|---------------------|

[Verse & Chorus]
(Repeat throughout the whole song)
e|-----------|---------------------------|-----------------------|
B|--------2--|-------------------------3-|-----------------------|
G|----2------|--------4--------2----2----|----2---3---4---5------|
D|-----------|----4--------2------0---0--|--0---0---2---2--------| (Every 1st progression)
A|--0---0----|--2---2----4---4-----------|-----------------------|
E|-----------|---------------------------|-----------------------|

e|-----------|---------------------------|-----------------------|
B|--------2--|-------------------------3-|-----------------------|
G|----2------|--------4--------2----2----|----4---5---4---5------|
D|-----------|----4--------2------0---0--|--2---2---2---2--------| (Every 2nd progression)
A|--0---0----|--2---2----4---4-----------|-----------------------|
E|-----------|---------------------------|-----------------------|


[Bridge]
 (PM - - - - - - - - - - - - - - - - - - - - - - - - - -)
e|---------|-----------------------|--------------------|
B|------2--|------3------5------7--|------7------9------|
G|----2----|----4------6------7----|----7------9--------|
D|---------|-----------------------|--------------------|
A|--0------|--2------4------5------|--5------7----------|
E|---------|-----------------------|--------------------|

 (PM- - - - - - - - - - - - - - - -)(Bass riff open - - -)
e|---------|-----------------------|--------------------|
B|------2--|------3------5------7--|--------------------|
G|----2----|----4------6------7----|--------------------|
D|---------|-----------------------|--------------------|
A|--0------|--2------4------5------|--------2/4--0------|
E|---------|-----------------------|--0-2-5-------------|
            
Submit corrections



        Options  lessons Hard to play? Try these video lessons and learn fast Options  lessons
        
↑ Back to top | Tablatures and chords for acoustic guitar and electric guitar, ukulele, drums are parodies/interpretations of the original songs. You may use it for private study, scholarship, research or language learning purposes only