» » »

Pink Floyd - Is There Anybody Out There? Tabs

Artists:  A B C D E F G H I J K L M N O P Q R S T U V W X Y Z # 

Is There Anybody Out There? Tabs

(ver. 1) Click to play this song!
Pink Floyd
 Rating:
4/5 (4 votes)
                
Standard Tuning
I know this is 100% right so if u don’t like it please tell me what’s wrong with it!! This song is played in Classical style and it is easiest that way, but you can play it how you want. The ‘Wavy Bracket Thing’ at the end means play with by strumming through rather than picking the strings all at once.

E-------0-----------|-------0----------|-------0-----------|-------0-----------|   
B-----1---1---------|-----1---1--------|-----1---1---------|-----1---1---------|
G---2-------2---2---|---2-------2---2--|---2-------2---2---|---2-------2---2---|
D-2-----------2-----|-3-----------3----|-4-----------4-----|-3-----------3-----|
A-------------------|------------------|-------------------|-------------------|
E-------------------|------------------|-------------------|-------------------|

E-------0-------0---|-------0-------0--|---------0---------|-------------------|   
B-----1-------1-----|-----1-------1----|-------1---1-------|-------1-----------|
G---2-------2-------|---2-------2------|-----2-------2-----|-----2---2---------|
D-2-------0---------|------------------|---2-----------2---|---2-------2---0---|
A-------------------|-3-------2--------|-0-----------------|-0-----------0-----|
E-------------------|------------------|-------------------|-------------------|

E---------0---------|------------------|-------0-----------|-------0-----------|   
B-------1---1-------|-------1----------|-----1---1---------|-----1---1---------|
G-----2-------2-----|-----2---2---2----|---2-------2---2---|---2-------2---2---|
D---2-----------2---|---2-------2---2--|-2-----------2-----|-3-----------3-----|
A-0-----------------|-0----------------|-------------------|-------------------|
E-------------------|------------------|-------------------|-------------------|

E-------0-----------|-------0----------|---------------0---|-------0-----------|   
B-----1---1---------|-----1---1--------|-----1-------1-----|-----1---1---------|
G---2-------2---2---|---2-------2---0--|---2-------2-------|---2-------2-------|
D-4-----------4-----|-3-----------3----|-3-----2-0---------|-0-----------------|
A-------------------|------------------|-------------------|-------------3-2---|
E-------------------|------------------|-------------------|-------------------|

E---------0---------|------------------|---------0---------|-------------------|   
B-------1---1-------|-------1----------|-------1---1-------|-------1-----------|
G-----2-------2-----|-----2---2--------|-----2-------2-----|-----2---2---2-----|
D---2-----------2---|---2-------2---2--|---2-----------2---|---2-------2---2---|
A-0-----------------|-0-----------0----|-0-----------------|-0-----------------|
E-------------------|------------------|-------------------|-------------------|

E---------0---------|-----------0------|---------0---------|-------------------|   
B-------1---1-------|-------1h3---3----|-------0---0-------|-5---3---1---0-----|
G-----0-------0-----|-----0---------0--|-----2-------2-5---|---4---2---0---0---|
D---2-----------2---|---2--------------|---2---------------|-------------------|
A-3-----------------|-2----------------|-0-----------------|-------------------|
E-------------------|------------------|-------------------|-------------------|

E---------0---------|-----------0------|---------0---------|-8-----------7-----|   
B-------1---1-------|-------1h3---3----|-------0---0-------|-------------------|
G-----0-------0-----|-----0---------0--|-----2-------0-9---|-----------7-------|
D---2-----------2---|---2--------------|---2---------------|-------------------|
A-3-----------------|-2----------------|-0-----------------|-------------------|
E-------------------|------------------|-------------------|-------------------|

E-------0-----------|-------0----------|-------0-----------|-------0-----------|   
B-----1---1---------|-----1---1--------|-----1---1---------|-----1---1---------|
G---2-------2---2---|---2-------2---2--|---2-------2---2---|---2-------2---2---|
D-2-----------2-----|-3-----------3----|-4-----------4-----|-3-----------3-----|
A-------------------|------------------|-------------------|-------------------|
E-------------------|------------------|-------------------|-------------------|

E-------0-------0---|-------0-------0--|-----------5-7-8---|---/12-------------|   
B-----1-------1-----|-----1-------1----|-------1/5---------|---\13-------------|
G---2-------2-------|---2-------2------|-----2-------------|---/14-------------|
D-2-------0---------|------------------|---2---------------|---\14-------------|
A-------------------|-3-------2--------|-0-----------------|---/15-------------|
E-------------------|------------------|-------------------|-------------------|
						ritard.
            
Submit corrections

↑ Back to top | Tablatures and chords for acoustic guitar and electric guitar, ukulele, drums are parodies/interpretations of the original songs. You may use it for private study, scholarship, research or language learning purposes only