» » »

Pink Floyd - Goodbye Cruel World Bass

Artists:  A B C D E F G H I J K L M N O P Q R S T U V W X Y Z # 

Goodbye Cruel World Bass

(ver. 2) Click to play this song!
Pink Floyd
 Rating:
4/5 (4 votes)
                Intro/Verse       "I'm Leaving you today"
G------7--|       |--------------------|
D---------|(16x)  |-------5--------5---|
A--5------|       |--------------------|
E---------|       |---3--------3-------|

"Goodbye, goodbye, goodbye"          (4x)
G------7----------------7-------7--| |------7--|
D--------------7-------------------| |---------|
A--5----------------5-------5------| |--5------|
E----------5-----------------------| |---------|

"There's nothing.."  "To make me.."
G-----------------|  |------7----------|
D------5-------5--|  |--------------7--|  (Silent on "Goodbye")
A-----------------|  |--5--------------|
E--3-------3------|  |----------5------|
            
Submit corrections

↑ Back to top | Tablatures and chords for acoustic guitar and electric guitar, ukulele, drums are parodies/interpretations of the original songs. You may use it for private study, scholarship, research or language learning purposes only