Home » P » Pinback »

Pinback - Good To Sea Bass

Artists:  A B C D E F G H I J K L M N O P Q R S T U V W X Y Z # 

Good To Sea Bass

(ver. 1) Click to play this song!
Pinback
Tuning: Standard


|------------------------------2-------------------------------2--|
|5-5----5-5-5-4------------------4-5-5----5-5-5-4----------------4|
|-----------------2-2----2-2-2--------------------2-2----2-2-2----|
|-----------------------------------------------------------------|
(this part repeats throughout the song)


"Oh no. I hit rock bottom." (around 1:46)

|--------------------------------------------------------|
|--------------5~---5~---------------------5~---5~-------|
|3~---3~---5-7-----------5-7-3~---3~---5-7-----------5-7-|
|--------------------------------------------------------| (x2)


After this, continue to repeat...

|------------------------------2-------------------------------2--|
|5-5----5-5-5-4------------------4-5-5----5-5-5-4----------------4|
|-----------------2-2----2-2-2--------------------2-2----2-2-2----|
|-----------------------------------------------------------------|

...until the song ends.


I hope this helps! There's probably one mistake somewhere, but it sounds really good. If 
catches anything, let me know so I can correct it. Please rate and comment! C:
            
Submit corrections

↑ Back to top | Tablatures and chords for acoustic guitar and electric guitar, ukulele, drums are parodies/interpretations of the original songs. You may use it for private study, scholarship, research or language learning purposes only