» » »

Pilot - Magic Into Tabs

Artists:  A B C D E F G H I J K L M N O P Q R S T U V W X Y Z # 

Magic Into Tabs

(ver. 1) Click to play this song!
Pilot
 Rating:
4/5 (4 votes)

 Magic Into lessons Tabs too difficult? Try these video lessons and learn fast
 
                                              G 
E||-------------------------|-------------------------|-------------------------|
B||-------------------------|-------------------------|-------------------------|
G||-------------12----12----|-14b---14b---------------|-L-----14pbr----12----12-|
D||-------12h14----14-------|-------------------------|-------------------14----|
A||-------------------------|-------------------------|-------------------------|
E||-------------------------|-------------------------|-------------------------|
    1     2     3     4       1     2     3     4       1     2     3     4      
 
    Bm                Emadd9               Am           A9/C#   
  |-------------------------|------------|------------|-------------------------|
  |-------------12----------|------------|-15b---15b--|-------------------------|
  |-14b---------------12----|-L----------|------------|-14pbr-12----12----------|
  |-------------------------|------------|------------|----------14-------------|
  |-------------------------|------------|------------|-------------------------|
  |-------------------------|------------|------------|-------------------------|
    1     2     3     4       1  2  3  4   1  2  3  4   1     2     3     4      
   
    C                         D                         G                 Fadd9
  |-------------------------|-------------------------|-------------------------|-15\----------|
  |-------------13----15----|-------------------------|-------------------------|--------------|
  |-------14b---------------|-14b---14pb--14pbr-12----|-14p12-------L-----------|-------7\-----|
  |-------------------------|-------------------------|-------------------------|--------------|
  |-------------------------|-------------------------|-------------------------|--------------|
  |-------------------------|-------------------------|-------------------------|--------------|
    1     2     3     4       1     2     3     4       1     2     3     4       1  2  3  4  
            
Submit corrections


        Magic Into lessons Hard to play? Try these video lessons and learn fast Magic Into lessons
        
↑ Back to top | Tablatures and chords for acoustic guitar and electric guitar, ukulele, drums are parodies/interpretations of the original songs. You may use it for private study, scholarship, research or language learning purposes only