» » »

Pillows - Advice Tabs

Artists:  A B C D E F G H I J K L M N O P Q R S T U V W X Y Z # 

Advice Tabs

(ver. 1) Click to play this song!
Pillows
 Rating:
4.7/5 (12 votes)

 Advice lessons Tabs too difficult? Try these video lessons and learn fast
 
                The Pillows - Advice

Intro
e--------------------------------------
B--------------------------------------
G--------------------------------------
D--------------------------------------
A--------------------------------------
E--0-66-0-33-0-66-0-33-0-66-0-33-------

Other Part
e--------------------------------------
B--------------------------------------
G--------------------------------------
D--------------------------------------
A----88---55---88---55---88---55-------
E--0-66-0-33-0-66-0-33-0-66-0-33-------

Another Part
e-------------------------------------------------
B-------------------------------------------------
G-------------------------------------------------
D----88---55---88---55---88---55---878787-88---55-
A----88---55---88---55---88---55---878787-88---55-
E--0-66-0-33-0-66-0-33-0-66-0-33-0-656565-66-0-33-

Chorus
e------------------------------------------------
B------------------------------------------------
G------------------------------------------------
D--333333333-77777777-88888888-11111111-10101010-
A--333333333-77777777-88888888-11111111-10101010-
E--111111111-55555555-66666666-9-9-9-9--8-8-8-8--

then go back to "another part" a few times
and the "chorus" a few times...
and that's it!
            
Submit corrections


        Advice lessons Hard to play? Try these video lessons and learn fast Advice lessons
        
↑ Back to top | Tablatures and chords for acoustic guitar and electric guitar, ukulele, drums are parodies/interpretations of the original songs. You may use it for private study, scholarship, research or language learning purposes only