Home » P » Phish »

Phish - Taste Tabs

Artists:  A B C D E F G H I J K L M N O P Q R S T U V W X Y Z # 

Taste Tabs

(ver. 2) Click to play this song!
Phish
"Taste" 
By PHiSH off of Billy Breathes

INTRO
Dadd9(no 3rd)
---------0-----------0--
------3----3-------3--3
----2--------2---2------2
--0------------0---------0
-------------------------------
-----------------------------

VERSE
-------0---------------------------------0------0-------0-------0--------
------3--3------------------------------3-3----3-3----3--0----3--3-cont..
----2-----2----------------------------2---2--5---5--4----4--2----2-----
--0---------0---------0--0---0---0---0-----0-------0-------0-------0----
--------------------0---3--2---------------------------------------------
---------------0 1 3------------3---3-------------------------------------
there is a little break over Dadd9(no 3rd) between the two theme things i
didn't indicate timing
CHORUS
A			  G            Dadd9(no 3rd)
-------0-----------0---------0-----------0------------
-----2---2-------2--2------3--3--------3--3-------------
---2-------2---2-----2----0----0-----2-----2-----------
--2----------2--------2--0------0---0-------0---------
------------------------0----------3---------------
------------------------------------------------
at verse 3 it goes for a while 
------0--------------
----7--7---------------
---7----7------------
--0------0----------
------------------
--------------------
the apreggio is
-------------------------------0-------0-----------------
------------------------5-7-7---7----7--7--------------------
------------------4-5-7----------7--7-----7------------------
------------4-5-7-----------------0--------7--------------
------3-5-7-------------------------------------------
-5--7--------------------------------------------
INterlude
-----------0----------------------
--------15---15--------------------
----14----------14----------------
--0----------------0-------------
----------------------------------
-----------------------------------
then fishman lrics
-5-5--5--5--5------------------------
-7-7--5--8--7--------------------over and over
-7-7--5--7--7--------------------
--------------------------------
--------------------------------
---------------------------------
chorus is
A-->F#m-->G-->C-->D

Bm7-->G-->E

A-->F#m-->G-->C-->D

Bm-->G-->C

A-->F#m-->G-->C-->D
            
Submit corrections

↑ Back to top | Tablatures and chords for acoustic guitar and electric guitar, ukulele, drums are parodies/interpretations of the original songs. You may use it for private study, scholarship, research or language learning purposes only