Home » P » Phish »

Phish - Horn Tabs

Artists:  A B C D E F G H I J K L M N O P Q R S T U V W X Y Z # 

Horn Tabs

(ver. 2) Click to play this song!
Phish
 Rating:
4/5 (4 votes)
                Horn - Phish
additions/improvements welcome

Main riff:


                     E E
---------------------7-7--------|
---------------------9-9--------|
------------5--------9-9--------|
--------5-7---7-5----9-9--------|
--5-\-7--------------7-7--------|
------------------0-------------|

Whine? Whine? Car horn
Now that you've deceived me
and play my name around
and hung those nasty flyers
on all the buildings in the town
Dribbled my possesions
in a ring around the earth
and Bought and sold my self control
for less than it was worth
now the reason
that i'm feeling so forlorn
I'll pick you up at eight as usual
listen for my horn
Whine? Whine? Car horn

  /-\-/-\-/-\-/-\-/-\-/-\-/-\-/-\-/-\-/-\-/-\-/-\-/-\-/-\-/-\-/-\-/-\-/-\-/-\
  I  Steve Vetter                    I   "I'm not the same                  I
  /  Elon College                    I        And I hope that it shows..."  \
  I  Alpha Kappa Psi                 I          -Neil Young  (Homefires)    I
  \-/-\-/-\-/-\-/-\-/-\-/-\-/-\-/-\-/-\-/-\-/-\-/-\-/-\-/-\-/-\-/-\-/-\-/-\-/
            
Submit corrections

↑ Back to top | Tablatures and chords for acoustic guitar and electric guitar, ukulele, drums are parodies/interpretations of the original songs. You may use it for private study, scholarship, research or language learning purposes only