» » »

Philmont - The Difference Tabs

Artists:  A B C D E F G H I J K L M N O P Q R S T U V W X Y Z # 

The Difference Tabs

(ver. 1) Click to play this song!
Philmont
 Rating:
4/5 (9 votes)

 The Difference lessons Tabs too difficult? Try these video lessons and learn fast
 
                Tuning: Eb (Eb Ab Db Gb Bb eb)

Intro (Rhythm)

Eb---------------------------------------|
Bb---------------------------------------|
Gb----------55555555--------77777777-----|
Db--22222222555555555555555577777777-----|
Ab--22222222333333335555555555555555-----|
Eb--00000000--------33333333-------------|

Eb---------------------------------------|
Bb---------------------------------------|
Gb----------55555555--------44444444-----|
Db--22222222555555555555555544444444-----|
Ab--22222222333333335555555522222222-----|
Eb--00000000--------33333333-------------|

Intro (Lead):

Eb--------------------------------------------------------------------|
Bb--12121212121212121010108-8-8-8-8-12121212121212121010101515151515--|
Gb--x-x-x-x-x-x-x-x-x-x-x-x-x-x-x-x-x-x-x-x-x-x-x-x-x-x-x-x-x-x-x-x---|
Db--9-9-9-9-9-9-9-9-7-7-7-5-5-5-5-5-9-9-9-9-9-9-9-9-7-7-7-1212121212--|
Ab--------------------------------------------------------------------|
Eb--------------------------------------------------------------------|

Eb--------------------------------------------------------------------|
Bb--12121212121212121010108-8-8-8-8-12121212121212121010101212101010--|
Gb--x-x-x-x-x-x-x-x-x-x-x-x-x-x-x-x-x-x-x-x-x-x-x-x-x-x-x-x-x-x-x-x---|
Db--9-9-9-9-9-9-9-9-7-7-7-5-5-5-5-5-9-9-9-9-9-9-9-9-7-7-7-9-9-7-7-7---|
Ab--------------------------------------------------------------------|
Eb--------------------------------------------------------------------|

Verse (Picking):   Play 4x

Eb-------------------------------------------------------------------|
Bb--------3---------------3--------------3---------------3-----------|
Gb------0-----0---0-----0----0---0-----0-----0---0-----0-----0---0---|
Db----4---------4-----4--------4-----4---------4-----4---------4-----|
Ab------------------3------------------------------5-----------------|
Eb--0------------------------------3---------------------------------|

Verse (Strums halfway through):   Play 2x

Eb---------------------------------------------------------------------|
Bb------8-----8-8--------8-----8-8--------12-----1212------10-----1010-|
Gb------9-----9-9--------9-----9-9--------12-----1212------11-----1111-|
Db------9-----9-9--------10----1010-------12-----1212------12-----1212-|
Ab------7-----7-7--------10----1010-------10-----1010------12-----1212-|
Eb-----------------------8-----8-8-------------------------10-----1010-|

Chorus (Rhythm):
Same chords as Intro, obviously rhythm changes halfway through

Chorus (Lead):

Eb-----------------------------------------------------------------------------|
Bb-----------------------------------------------------------------------------|
Gb--12--12--11/12-11/12-12--12--11/9/7--12--12--11/12-11/12-14--14-11/9/7------|
Db--x---x---x--x--x--x----------x--x-x--x---x---x--x--x--x---x---x--x--x-x-----|
Ab--10--10--9-/10-9-/10-10--10--9-/7/5--10--10--9-/10-9-/10-12--12--9-/7/5-----|
Eb-----------------------------------------------------------------------------|

Eb-----------------------------------------------------------------------------|
Bb-----------------------------------------------------------------------------|
Gb--12--12--11/12-11/12-12--12--11/9/7--12--12--11/12-11/12-14--14-11/9/8------|
Db--x---x---x--x--x--x----------x--x-x--x---x---x--x--x--x---x---x--x--x-x-----|
Ab--10--10--9-/10-9-/10-10--10--9-/7/5--10--10--9-/10-9-/10-12--12--9-/7/6-----|
Eb-----------------------------------------------------------------------------|

Repeat Intro

Verse 2 (Rhythm):
Palm mute same chords as 1st half of Intro

Verse 2 (Lead):  Come in halfway through , Play 2x

Eb----------7-------------8-------------7-------------5---------|
Bb--------8-----8-------8-----8-------8-----8-------8-----8-----|
Gb------9---------9---7---------7---7---------7---7---------7---|
Db--------------------------------------------------------------|
Ab--------------------------------------------------------------|
Eb--------------------------------------------------------------|

Bridge: (Clean Rhythm at beginning)

Eb------------0--------------------------0-------------------|
Bb--0----0----0-------------0------0-----0---0-0-0-0-0-0-----|
Gb--0----0----0-------------0------0-----2---2-2-2-2-2-2-----|
Db--2----0----2-------------0------0-----2---2-2-2-2-2-2-----|
Ab--2----2----3-------------2------2-----0---0-0-0-0-0-0-----|
Eb--0----3------------------3------3-------------------------|

Bridge (Distorted Rhythm):

Eb--------------------------------------------|
Bb--------------------------------------------|
Gb----------5--55--55555--------7--77--77777--|
Db--2--25--55--55--555555--55--57--77--77777--|
Ab--2--25--53--33--333335--55--55--55--55555--|
Eb--0--03--3------------3--33--3--------------|

Eb------------------------------------------|
Bb------------------------------------------|
Gb----------5--55--55555--------------------|
Db--2--25--55--55--555555555555577777777----|
Ab--2--25--53--33--333335555555577777777----|
Eb--0--03--3------------3333333355555555----|


Eb----------------------------------------------|
Bb----------------------------------------------|
Gb------------5---55---555557777777777777777----|
Db--2---25---55---55---555557777777777777777----|
Ab--2---25---53---33---333335555555555555555----|
Eb--0---03---3----------------------------------|
                            ................

Eb--------------------------------------------------------|
Bb--------------------------------------------------------|
Gb--7///12-12-12-12-12-12-12-12-12-12-12-12-12-12-12-12//-|
Db--------------------------------------------------------|
Ab--------------------------------------------------------|
Eb--------------------------------------------------------|

Eb------------------------------------------------------|
Bb------------------------------------------------------|
Gb--///19-19-19-19-19-19-19-19-19-19-19-19-19-19-19-19--|
Db------------------------------------------------------|
Ab------------------------------------------------------|
Eb------------------------------------------------------|
            
Submit corrections


        The Difference lessons Hard to play? Try these video lessons and learn fast The Difference lessons
        
↑ Back to top | Tablatures and chords for acoustic guitar and electric guitar, ukulele, drums are parodies/interpretations of the original songs. You may use it for private study, scholarship, research or language learning purposes only