Home » P » Philmont »

Philmont - My Hippocratic Oath Bass

Artists:  A B C D E F G H I J K L M N O P Q R S T U V W X Y Z # 

My Hippocratic Oath Bass

(ver. 1) Click to play this song!
Philmont
-------------------------------------------------------------------------------
-------------------------------------------------------------------------------

Tuning: Half-Step Down

  Intro
Gb|---------------------------------------------------------------------------|
Db|------2-------------------2-------------------2----------------------------|
Ab|-4-xx---4-2-2222222--4-xx---4-2-2222222--4-xx---4-2-2222222000000000000000-|
Eb|---------------------------------------------------------------------------|
  Verse
Gb|---------------------------------------------------------------|
Db|----22------------22-------------------------------------------|
Ab|-44----2-2-222-44----2-2-222-000000004444444442222222222222222-|
Eb|---------------------------------------------------------------|

Gb|-------------------------------------------------------------------|
Db|--------------------------------------------------2222222222222222-|
Ab|-4-4-4-4-22222222-4-4-4-4-222222220000000044444444-----------------|
Eb|-------------------------------------------------------------------|
  Chorus
Gb|------------------------------------------------------------------|
Db|--------------222-----------------------------222-----------------|
Ab|-4444444444444---00000000000000004444444444444---0000000000000000-|
Eb|------------------------------------------------------------------|

Gb|-----------------------------------------------------------------------|
Db|-----------------------------------------------------------------------|
Ab|-0---2---4-------0---2---2h4-4-x-2h4-4-x-2h4---0---2---4-------0---0-2-|
Eb|-------------2---------------------------------------------2-----------|
  Post-Chorus
Gb|-----------------------------------|
Db|------2----------------------------|
Ab|-4-xx---4-2-2222222000000000000000-|
Eb|-----------------------------------|
  Verse
Gb|---------------------------------------------------------------|
Db|----22------------22-------------------------------------------|
Ab|-44----2-2-222-44----2-2-222-000000004444444442222222222222222-|
Eb|---------------------------------------------------------------|

Gb|-------------------------------------------------------------------|
Db|--------------------------------------------------2222222222222222-|
Ab|-4-4-4-4-22222222-4-4-4-4-222222220000000044444444-----------------|
Eb|-------------------------------------------------------------------|
  Chorus
Gb|------------------------------------------------------------------|
Db|--------------222-----------------------------222-----------------|
Ab|-4444444444444---00000000000000004444444444444---0000000000000000-|
Eb|------------------------------------------------------------------|

Gb|-----------------------------------------------------------------------|
Db|-----------------------------------------------------------------------|
Ab|-0---2---4-------0---2---2h4-4-x-2h4-4-x-2h4---0---2---4-------0---0-2-|
Eb|-------------2---------------------------------------------2-----------|
  Quiet Bass Before Bridge
Gb|------------------------------------|
Db|------------------------------------|
Ab|-4---2---4---2---0---2---0---2---4\-|
Eb|------------------------------------|
  Bridge
Gb|-------------------------------------------------------------------------|
Db|-------------------------------------------------------------------------|
Ab|-000-0-000-0-000-0-000-0-------------------------222-2-222-2-444-4-000-0-|
Eb|-------------------------444-4-444-4-444-4-444-4-------------------------|

Gb|-------------------------------------------------------------------------|
Db|-------------------------------------------------------------------------|
Ab|-444-4-444-4-444-4-444-4-000-0-000-0-000-0-000-0-------------------------|
Eb|-------------------------------------------------444-4-444-4-444-4-444-4-|

Gb|-------------------------------------------------------------------------|
Db|-------------------------------------------------------------------------|
Ab|-222-2-222-2-444-4-000-0-4-4-4-4-4-4-4-4-4-4-4-4-0-0-0-0-0-0-0-0-0-0-0-0-|
Eb|-------------------------------------------------------------------------|

Gb|-------------------------------------------------------------------------|
Db|-------------------------------------------------------------------------|
Ab|-------------------------222-2-222-2-444-4-000-0---0---2---4-------0---2-|
Eb|-4-4-4-4-4-4-4-4-4-4-4-4---------------------------------------2---------|
  Final Chorus
Gb|-----------------------------------------------------------------|
Db|-----------------------------------------------------------------|
Ab|-4-4-444-4444444000000002222222244444444--------0000000022222222-|
Eb|----------------------------------------22222222-----------------|

Gb|----------------------------------------------------------------------|
Db|----------------------------------------------------------------------|
Ab|-44/66/77/99/14141414\12121212000000002222222244444444--------0---0-2-|
Eb|------------------------------------------------------22222222--------|
  End
Gb|----------------------|
Db|-------2--------------|
Ab|-/4-xx---4-2-22222220-|
Eb|----------------------|


| /  slide up
| \  slide down
| h  hammer-on
| p  pull-off
| ~  let note ring
| +  harmonic
| x  Mute note
===============================================================================
            
Submit corrections

↑ Back to top | Tablatures and chords for acoustic guitar and electric guitar, ukulele, drums are parodies/interpretations of the original songs. You may use it for private study, scholarship, research or language learning purposes only