» » »

Philmont - Closer Tabs

Artists:  A B C D E F G H I J K L M N O P Q R S T U V W X Y Z # 

Closer Tabs

(ver. 1) Click to play this song!
Philmont
 Rating:
4.3/5 (6 votes)

 Closer lessons Tabs too difficult? Try these video lessons and learn fast
 
                -------------------------------------------------------------------------------
-------------------------------------------------------------------------------

Thanks to Josiah from the band for making this tab available. This tab is 100% correct 
because it came straight from the band.

Tuning: Db (Db Ab Db Gb Bb eb)

Intro: (lead/delay part):
eb|--------------9--------------------9------------------9-----------------12---------|
Bb|-----10---10----10-10-----10---10----10-10----10--10----10-10---10--10----10-9-10--|
Gb|-------9----9-----9---------9----9-----9--------9---9-----9-------9---9------------|
Db|--12------------------12-------------------11-----------------9--------------------| x4
Ab|-----------------------------------------------------------------------------------|
Db|-----------------------------------------------------------------------------------|
     .  . .  . . . . . . .   . .  . . . . . . .  . . . . . . . . . . . . .

eb|--0---------------------------0----------0------------------0-------|
Bb|--10------------------------12---------14-------------------15------|
Gb|--9------------------------9---------14---------------------14------|
Db|--0-----------------------0---------0-------------------------------|
Ab|--------------------------------------------------------------------|
Db|--------------------------------------------------------------------|

Intro (rhythm):
eb|-----------------------------------------------------|
Bb|-----------------------------------------------------|
Gb|-----------------------------------------------------|
Db|--0-0-0-------0-0-0------7-7-7-------2-2-2-xx4-4-----|
Ab|--0-0-0-------0-0-0------7-7-7-------2-2-2-xx4-4-----|
Db|--0-0-0-------0-0-0------7-7-7-------2-2-2-xx4-4-----|

eb|--------------------------------------------------------------------0----|
Bb|-------------------------------------------------------------------3-----|
Gb|------------------------------------------------------------------2------|
Db|--0-0-0-------0-0-0------7-7-7-------2-2-2-xx4-4--0--------------0-------|
Ab|--0-0-0-------0-0-0------7-7-7-------2-2-2-xx4-4--0-------------0--------|
Db|--0-0-0-------0-0-0------7-7-7-------2-2-2-xx4-4--0------------0---------|

Verse 1 (rhythm): "she lays still tonight..."
eb|----------------------------------------------------|
Bb|----------------------------------------------------|
Gb|----------------------------------------------------|
Db|--4-4-4-------0-0-0-------7-7-7-------2-2-2---------|
Ab|--4-4-4-------0-0-0-------7-7-7-------2-2-2---------|
Db|--4-4-4-------0-0-0-------7-7-7-------2-2-2---------|
     . . .       . . .       . . .       . . .

eb|-----------------------------------------------------|
Bb|-----------------------------------------------------|
Gb|------------------------------------------9999-------|
Db|--4-4-4-------0-0-0-------7-7-7-------77779999-------|
Ab|--4-4-4-------0-0-0-------7-7-7-------77777777-------|
Db|--4-4-4-------0-0-0-------7-7-7-------77777777-------|
     . . .       . . .       . . .       ....

Verse 1 (lead/delay): "she lays still..."
eb|-----------------------------------------------------------9-7--------|
Bb|----------10---------------5-----------------------------9-----10-9---|
Gb|------9-11--11-9-------6-7---7-6---------6-9-6---------9--------------|
Db|----11-----------11--7-----------7---7-9-------9-7---9----------------|
Ab|--9----------------5---------------0---------------7------------------|
Db|----------------------------------------------------------------------|
     . . . .   .  . . . . . . . . . . . . . . . . . . . . . .

eb|----------------------------------------------------------------------------|
Bb|----------10---------------5------------------------------------------------|
Gb|------9-11--11-9-------6-7---7-6---------6-9-6------------------------------|
Db|----11-----------11--7-----------7---7-9-------9-7-9/11-11-11-11-11-11-11---|
Ab|--9----------------5---------------0---------------0-0--0--0--0--0--0--0----|
Db|----------------------------------------------------------------------------|
     . . . .   .  . . . . . . . . . . . . . . . . . . . .  .  .

Chorus (rhythm):
eb|----------------------------------------------|
Bb|----------------------------------------------|
Gb|----------------------------------------------|
Db|--0-0-0-0---0-0-0-0---7-7-7-7---2-2-2-24-4----| 2x
Ab|--0-0-0-0---0-0-0-0---7-7-7-7---2-2-2-24-4----|
Db|--0-0-0-0---0-0-0-0---7-7-7-7---2-2-2-24-4----|

Chorus (lead):
eb|----9-----9---------9-----9--------7-----7--------4-------5------|
Bb|------10----10-------10----10--------10----10-------2------------|
Gb|--9-----9--------11----11--------9-----9--------4-----4/6--------| 2x
Db|-----------------------------------------------------------------|
Ab|-----------------------------------------------------------------|
Db|-----------------------------------------------------------------|

Verse 2 (rhythm): palm-mute these chords
eb|----------------------------------------------------|
Bb|--10----------7-------------14---------9------------|
Gb|--11----------7-------------14---------9------------|
Db|--11----------7-------------14---------9------------| 2x
Ab|--9-----------5-------------12---------7------------|
Db|----------------------------------------------------|

Verse 2 (lead):
eb|-------------------------------------------------------------|
Bb|----10-xx10\9-10--10-xx10\9-10---10-xx10\9-------------------|
Gb|----x--xxx-\x-x---x--xxx-\x-x----x--xxx-\x-9---9-xx9\7-6-----| 2x
Db|----7--xx7-\6-7---7--xx7-\6-7----7--xx7-\6-x---x-xxx\x-x-----|
Ab|-------------------------------------------7---7-xx7\5-4-----|
Db|-------------------------------------------------------------|

Bridge (rhythm):
eb|--------------------------------------------------------------------|
Bb|--------------------------------------------------------------------|
Gb|--------------------------------------------------------------------|
Db|--7777777777777777999999999999999900000000000000007777777766666666--| 4x
Ab|--0000000000000000000000000000000000000000000000000000000000000000--|
Db|--------------------------------------------------------------------|
     ................................................................

eb|---------------------------------------------------------------------|
Bb|---------------------------------------------------------------------|
Gb|------------------9999999999999999-----------------------------------|
Db|--7777777777777777999999999999999900000000000000007777777722222222---|
Ab|--0000000000000000777777777777777700000000000000007777777722222222---|
Db|------------------777777777777777700000000000000007777777722222222---|
     ........................

eb|---------------------------------------------------------------------|
Bb|---------------------------------------------------------------------|
Gb|------------------9999999999999999-----------------------------------|
Db|--7777777777777777999999999999999900000000000000007777777722222222---| 2x then back 
to intro
Ab|--0000000000000000777777777777777700000000000000007777777722222222---|
Db|------------------777777777777777700000000000000007777777722222222---|

Bridge (lead): this whole part is actually played higher up on the neck, but for tabbing 
purposes, these positions are easier to read
eb|-----------------------------------------------------------------------|
Bb|------------------------------------7777777777777777-------------------|
Gb|--2/66666666666666669999999999999999----------------6666666644444444---|  3x
Db|-----------------------------------------------------------------------|
Ab|-----------------------------------------------------------------------|
Db|-----------------------------------------------------------------------|
      ................................................................

eb|------------------55555555555555//14141414141414141414141414141414\9999999977777777--|
Bb|-------------------------------------------------------------------------------------|
Gb|--6666666666666666-----------------------^-------------------------------------------|
Db|-----------------------------------(fourteens, not ones)-----------------------------|
Ab|-------------------------------------------------------------------------------------|
Db|-------------------------------------------------------------------------------------|
    ..........................

eb|--99999999999999991212121212121212121212121212121212/-|
Bb|------------------------------------------------------|
Gb|------------------------------------------------------|

eb|--/14141414141414141414141414141414\9999999977777777--|
Bb|------------------------------------------------------|
Gb|------------------------------------------------------|

eb|--999------999------99----121212------121212------1212-------|
Bb|-----101010---101010--1010------101010------101010----1010---|
Gb|-------------------------------------------------------------|

eb|--14141414141414141414141414141414\999999991212121212121212--|
Bb|-------------------------------------------------------------|  back to intro
Gb|-------------------------------------------------------------|

end on the open Db power chord

************************************

| /   slide up
| \   slide down
| h   hammer-on
| p   pull-off
| ~   vibrato
| +   harmonic
| x   Mute note
| b   Bend
| pb  Pre-bend
| br  Bend release
| pbr Pre-bend release
| brb Bend release bend

************************************
            
Submit corrections


        Closer lessons Hard to play? Try these video lessons and learn fast Closer lessons
        
↑ Back to top | Tablatures and chords for acoustic guitar and electric guitar, ukulele, drums are parodies/interpretations of the original songs. You may use it for private study, scholarship, research or language learning purposes only