» » »

Phaze - All My Life Bass

Artists:  A B C D E F G H I J K L M N O P Q R S T U V W X Y Z # 

All My Life Bass

(ver. 1) Click to play this song!
Phaze
 Rating:
4/5 (4 votes)
    All My Life lessons Tabs too difficult? Try these video lessons and learn fast
                Intro:
g:---16--14-------16-14---|
d:14-----------14---------|
a:------------------------|
e:------------------------|
b:------------------------|

Riff 1:
g:---------------------------------------------|
d:---------------------------------------------|
a:----------------------------------------7---7|
e:0000-7777-5555-9-7-9-7-0000-7777-5555-9---9--|
b:--------------(2-0-2-0)--------------(2-5-2-5)do the octaves after 4

Riff 2:
g:-------------------------------------|
d:-------------------------------------|
a:-------------------------------------|
e:0000-7777-55555555-0000-7777-55555555|
b:-------------------------------------|

Riff 3:
g:--------------------------------------------------------------------|
d:--------------------------------------------------------------------|
a:-------9-7------------------------9-7-------------------------------|
e:00-9-0-----9-0-7h9-9-7h9-9-7h9-00-----9-0-9h11-11-11-9h11-11-11-9h11|
b:--------------------------------------------------------------------|

End:
g:----------------------------------|
d:----------------------------------|
a:------7-9-7-------------7---------|
e:0-7-9-------8-7-5-7--4-------0----|
b:----------------------------------|
            
Submit corrections

↑ Back to top | Tablatures and chords for acoustic guitar and electric guitar, ukulele, drums are parodies/interpretations of the original songs. You may use it for private study, scholarship, research or language learning purposes only