Home » P » Pharrell Williams »

Pharrell Williams - Gust Of Wind Bass

Artists:  A B C D E F G H I J K L M N O P Q R S T U V W X Y Z # 

Gust Of Wind Bass

(ver. 1) Click to play this song!
Pharrell Williams
Intro (0:24)
G|--------------------------------|
D|3-----1-3-----1-3-----1-3-----1-|
A|--------------------------------|
E|--------------------------------|


Verse x 6
G|--------------------------------|--------------------------------|
D|3-------------------------------|--------3h5---3-----------------|
A|------3---------6---------------|--3---6-----------6---3---------|
E|------------------------4-------|6-----------------------1-------|

G|--------------------------------|--------------------------------|
D|--------------------------------|--------------------------------|
A|--------------------------------|--------------------------------|
E|1-------1-----1-------1-----1---|1-------1-----1-------1-----1---|


Chorus
G|--------------------------------|--------------------------------|
D|--------------------------------|--------------------------------|
A|8-------8-------6-------6-------|----------------------------6---|
E|--------------------------------|8-------6-------6-------6-8---8-|

G|--------------------------------|-------------------------12-10----|
D|----------------------------6---|8-------8-----------10-13-----13--|
A|8-------8-------6-------6-8---8-|------------------13--------------|
E|--------------------------------|----------------------------------|

G|--------------------------------|--------------------------------|
D|--------------------------------|--------------------------------|
A|8-------8-------6-------6-------|--------------------6-------6---|
E|--------------------------------|8-------6-------6-8---8-6-8---8-|

G|--------------------------------|--------------------12----10----|
D|----------------------------6---|8-------8-------------13----12--|
A|8-------8-------6-------6-8---8-|------------------------------13|
E|--------------------------------|--------------------------------|

Verse x 6
Chorus
Verse x 4
Verse x 2
Chorus
Verse to fade
            
Submit corrections

↑ Back to top | Tablatures and chords for acoustic guitar and electric guitar, ukulele, drums are parodies/interpretations of the original songs. You may use it for private study, scholarship, research or language learning purposes only