Home » P » Pharrell Williams »

Pharrell Williams - Frontin Bass

Artists:  A B C D E F G H I J K L M N O P Q R S T U V W X Y Z # 

Frontin Bass

(ver. 1) Click to play this song!
Pharrell Williams
[Intro]
 
G|-----------------------------|
D|-3-3-3-3--3-3--5-5--3-3--5-5-|
A|-----------------------------|
E|-----------------------------|
 
 
[Verse 1] (Don't wanna sound full of myself or rude...)
 
G|-----------------------------|
D|-3-3--5-5--3-3--5-5----------|
A|-----------------------------|
E|-----------------------------|
 
 
[Pre-Chorus] (So then we tried...)
 
G|-----------------------------|
D|-3-3--5-5--3-3--5-5----------|
A|-----------------------------|
E|-----------------------------|
 
 
[Chorus] (I know that I'm carrying on...)
 
G|----------------------------------------|
D|-3-3--3-3--5-5--5-5--3-3--3-3--5-5--5-5-|
A|----------------------------------------|
E|----------------------------------------|
 
 
[Verse 2] (Trying to be the best girlfriend you could be...)
 
G|-----------------------------|
D|-3-3--5-5--3-3--5-5----------|
A|-----------------------------|
E|-----------------------------|
 
 
[Pre-Chorus] (So then we tried...)
 
G|-----------------------------|
D|-3-3--5-5--3-3--5-5----------|
A|-----------------------------|
E|-----------------------------|
 
 
[Chorus] (I know that I'm carrying on...)
 
G|----------------------------------------|
D|-3-3--3-3--5-5--5-5--3-3--3-3--5-5--5-5-|
A|----------------------------------------|
E|----------------------------------------|
 
 
[Bridge] (Ho!...)
 
G|-----4-6-4--------7-9-7---------10-12-10-------------------|
D|---4-------4----7-------7----10----------10-------10-12-10-|
A|-2------------5------------8-------------------10----------|
E|---------------------------------------------8-------------|
 
G|-----4-6-4--------7-9-7---------10-12-10-------------------|
D|---4-------4----7-------7----10----------10-------10-12-10-|
A|-2------------5------------8-------------------10----------|
E|---------------------------------------------8-------------|
 
 
[Verse 3] (Every time your name was brought up...)
 
G|-----------------------------|
D|-3-3--5-5--3-3--5-5----------|
A|-----------------------------|
E|-----------------------------|
 
 
[Chorus] (I know that I'm carrying on...)
 
G|----------------------------------------|
D|-3-3--3-3--5-5--5-5--3-3--3-3--5-5--5-5-|
A|----------------------------------------|
E|----------------------------------------|
 
 
[Outro] (C'mon...)
 
G|-----4-6-4--------7-9-7---------10-12-10-------------------|
D|---4-------4----7-------7----10----------10-------10-12-10-|
A|-2------------5------------8-------------------10----------|
E|---------------------------------------------8-------------|
 
G|-----4-6-4--------7-9-7---------10-12-10-------------------|
D|---4-------4----7-------7----10----------10-------10-12-10-|
A|-2------------5------------8-------------------10----------|
E|---------------------------------------------8-------------|
 
G|-----4-6-4--------7-9-7---------10-12-10-------------------|
D|---4-------4----7-------7----10----------10-------10-12-10-|
A|-2------------5------------8-------------------10----------|
E|---------------------------------------------8-------------|
 
G|-----4-6-4--------7-9-7---------10-12-10-------------------|
D|---4-------4----7-------7----10----------10-------10-12-10-|
A|-2------------5------------8-------------------10----------|
E|---------------------------------------------8-------------|
 
 
*ALTERNATE WAY TO PLAY BRDIGE AND OUTRO*
 
G|---------------------------------------10-12-10-------------------|
D|-----9-11-9----------12-14-12-------10----------10-------10-12-10-|
A|---9--------9-----12----------12--8-------------------10----------|
E|-7-------------10-----------------------------------8-------------|
            
Submit corrections

↑ Back to top | Tablatures and chords for acoustic guitar and electric guitar, ukulele, drums are parodies/interpretations of the original songs. You may use it for private study, scholarship, research or language learning purposes only