Home » P » Phantom Planet »

Phantom Planet - Leader Tabs

Artists:  A B C D E F G H I J K L M N O P Q R S T U V W X Y Z # 

Leader Tabs

(ver. 2) Click to play this song!
Phantom Planet
Leader by Phantom Planet

Standard Tuning

e|--12-11-12-11-12-------11-9---9-----------------------|
B|------------------9-12------9---9---9-----------------|
G|----------------------------------9---9---------------|
D|----------------------------------------11------------|
A|------------------------------------------------------|
E|------------------------------------------------------|

e|------------------------------------------------------|
B|--10-9-10-9-10------9----10---------------------------|
G|------------------9---11----11-9-8--------------------|
D|---------------11------------------11-9---------------|
A|------------------------------------------------------|
E|------------------------------------------------------|

played after the first solo

for the second solo, you play the above as well as:

e|-----------------11-9---9-----------------------------|
B|------------9-12------9---9---9-----------------------|
G|--9-8-9-8-9-----------------9---9---------------------|
D|----------------------------------11------------------|
A|------------------------------------------------------|
E|------------------------------------------------------|

e|---------------9-12-16-14-17-14-12-11-----------------|
B|--10-9-10-9-10------------------------14-12-----------|
G|------------------------------------------------------|
D|------------------------------------------------------|
A|------------------------------------------------------|
E|------------------------------------------------------|
            
Submit corrections

↑ Back to top | Tablatures and chords for acoustic guitar and electric guitar, ukulele, drums are parodies/interpretations of the original songs. You may use it for private study, scholarship, research or language learning purposes only